  0
SECTION
  2
HEADER
  9
$ACADVER
  1
AC1024
  9
$ACADMAINTVER
 70
   226
  9
$DWGCODEPAGE
  3
ANSI_1252
  9
$LASTSAVEDBY
  1
raphaelmanzolillo
  9
$INSBASE
 10
0.0
 20
0.0
 30
0.0
  9
$EXTMIN
 10
-382.1946403679348
 20
-2780.227733933192
 30
0.0
  9
$EXTMAX
 10
519.8742846442496
 20
193.3047
 30
6019.385583595522
  9
$LIMMIN
 10
0.0
 20
0.0
  9
$LIMMAX
 10
12.0
 20
9.0
  9
$ORTHOMODE
 70
     0
  9
$REGENMODE
 70
     1
  9
$FILLMODE
 70
     1
  9
$QTEXTMODE
 70
     0
  9
$MIRRTEXT
 70
     1
  9
$LTSCALE
 40
1.0
  9
$ATTMODE
 70
     1
  9
$TEXTSIZE
 40
0.2
  9
$TRACEWID
 40
0.05
  9
$TEXTSTYLE
  7
Standard
  9
$CLAYER
  8
0
  9
$CELTYPE
  6
ByLayer
  9
$CECOLOR
 62
   256
  9
$CELTSCALE
 40
1.0
  9
$DISPSILH
 70
     0
  9
$DIMSCALE
 40
1.0
  9
$DIMASZ
 40
0.18
  9
$DIMEXO
 40
0.0625
  9
$DIMDLI
 40
0.38
  9
$DIMRND
 40
0.0
  9
$DIMDLE
 40
0.0
  9
$DIMEXE
 40
0.18
  9
$DIMTP
 40
0.0
  9
$DIMTM
 40
0.0
  9
$DIMTXT
 40
0.18
  9
$DIMCEN
 40
0.09
  9
$DIMTSZ
 40
0.0
  9
$DIMTOL
 70
     0
  9
$DIMLIM
 70
     0
  9
$DIMTIH
 70
     1
  9
$DIMTOH
 70
     1
  9
$DIMSE1
 70
     0
  9
$DIMSE2
 70
     0
  9
$DIMTAD
 70
     0
  9
$DIMZIN
 70
     0
  9
$DIMBLK
  1

  9
$DIMASO
 70
     1
  9
$DIMSHO
 70
     1
  9
$DIMPOST
  1

  9
$DIMAPOST
  1

  9
$DIMALT
 70
     0
  9
$DIMALTD
 70
     2
  9
$DIMALTF
 40
25.4
  9
$DIMLFAC
 40
1.0
  9
$DIMTOFL
 70
     0
  9
$DIMTVP
 40
0.0
  9
$DIMTIX
 70
     0
  9
$DIMSOXD
 70
     0
  9
$DIMSAH
 70
     0
  9
$DIMBLK1
  1

  9
$DIMBLK2
  1

  9
$DIMSTYLE
  2
Standard
  9
$DIMCLRD
 70
     0
  9
$DIMCLRE
 70
     0
  9
$DIMCLRT
 70
     0
  9
$DIMTFAC
 40
1.0
  9
$DIMGAP
 40
0.09
  9
$DIMJUST
 70
     0
  9
$DIMSD1
 70
     0
  9
$DIMSD2
 70
     0
  9
$DIMTOLJ
 70
     1
  9
$DIMTZIN
 70
     0
  9
$DIMALTZ
 70
     0
  9
$DIMALTTZ
 70
     0
  9
$DIMUPT
 70
     0
  9
$DIMDEC
 70
     4
  9
$DIMTDEC
 70
     4
  9
$DIMALTU
 70
     2
  9
$DIMALTTD
 70
     2
  9
$DIMTXSTY
  7
Standard
  9
$DIMAUNIT
 70
     0
  9
$DIMADEC
 70
     0
  9
$DIMALTRND
 40
0.0
  9
$DIMAZIN
 70
     0
  9
$DIMDSEP
 70
    46
  9
$DIMATFIT
 70
     3
  9
$DIMFRAC
 70
     0
  9
$DIMLDRBLK
  1

  9
$DIMLUNIT
 70
     2
  9
$DIMLWD
 70
    -2
  9
$DIMLWE
 70
    -2
  9
$DIMTMOVE
 70
     0
  9
$DIMFXL
 40
1.0
  9
$DIMFXLON
 70
     0
  9
$DIMJOGANG
 40
0.7853981633974483
  9
$DIMTFILL
 70
     0
  9
$DIMTFILLCLR
 70
     0
  9
$DIMARCSYM
 70
     0
  9
$DIMLTYPE
  6

  9
$DIMLTEX1
  6

  9
$DIMLTEX2
  6

  9
$DIMTXTDIRECTION
 70
     0
  9
$LUNITS
 70
     2
  9
$LUPREC
 70
     4
  9
$SKETCHINC
 40
0.1
  9
$FILLETRAD
 40
0.5
  9
$AUNITS
 70
     0
  9
$AUPREC
 70
     0
  9
$MENU
  1
.
  9
$ELEVATION
 40
0.0
  9
$PELEVATION
 40
0.0
  9
$THICKNESS
 40
0.0
  9
$LIMCHECK
 70
     0
  9
$CHAMFERA
 40
0.0
  9
$CHAMFERB
 40
0.0
  9
$CHAMFERC
 40
0.0
  9
$CHAMFERD
 40
0.0
  9
$SKPOLY
 70
     0
  9
$TDCREATE
 40
2458271.730532407
  9
$TDUCREATE
 40
2458272.022205984
  9
$TDUPDATE
 40
2459599.674317130
  9
$TDUUPDATE
 40
2459600.007650463
  9
$TDINDWG
 40
0.1774238310
  9
$TDUSRTIMER
 40
0.1774237963
  9
$USRTIMER
 70
     1
  9
$ANGBASE
 50
0.0
  9
$ANGDIR
 70
     0
  9
$PDMODE
 70
     0
  9
$PDSIZE
 40
0.0
  9
$PLINEWID
 40
0.0
  9
$SPLFRAME
 70
     0
  9
$SPLINETYPE
 70
     6
  9
$SPLINESEGS
 70
     8
  9
$HANDSEED
  5
450
  9
$SURFTAB1
 70
     6
  9
$SURFTAB2
 70
     6
  9
$SURFTYPE
 70
     6
  9
$SURFU
 70
     6
  9
$SURFV
 70
     6
  9
$UCSBASE
  2

  9
$UCSNAME
  2

  9
$UCSORG
 10
0.0
 20
0.0
 30
0.0
  9
$UCSXDIR
 10
1.0
 20
0.0
 30
0.0
  9
$UCSYDIR
 10
0.0
 20
1.0
 30
0.0
  9
$UCSORTHOREF
  2

  9
$UCSORTHOVIEW
 70
     0
  9
$UCSORGTOP
 10
0.0
 20
0.0
 30
0.0
  9
$UCSORGBOTTOM
 10
0.0
 20
0.0
 30
0.0
  9
$UCSORGLEFT
 10
0.0
 20
0.0
 30
0.0
  9
$UCSORGRIGHT
 10
0.0
 20
0.0
 30
0.0
  9
$UCSORGFRONT
 10
0.0
 20
0.0
 30
0.0
  9
$UCSORGBACK
 10
0.0
 20
0.0
 30
0.0
  9
$PUCSBASE
  2

  9
$PUCSNAME
  2

  9
$PUCSORG
 10
0.0
 20
0.0
 30
0.0
  9
$PUCSXDIR
 10
1.0
 20
0.0
 30
0.0
  9
$PUCSYDIR
 10
0.0
 20
1.0
 30
0.0
  9
$PUCSORTHOREF
  2

  9
$PUCSORTHOVIEW
 70
     0
  9
$PUCSORGTOP
 10
0.0
 20
0.0
 30
0.0
  9
$PUCSORGBOTTOM
 10
0.0
 20
0.0
 30
0.0
  9
$PUCSORGLEFT
 10
0.0
 20
0.0
 30
0.0
  9
$PUCSORGRIGHT
 10
0.0
 20
0.0
 30
0.0
  9
$PUCSORGFRONT
 10
0.0
 20
0.0
 30
0.0
  9
$PUCSORGBACK
 10
0.0
 20
0.0
 30
0.0
  9
$USERI1
 70
     0
  9
$USERI2
 70
     0
  9
$USERI3
 70
     0
  9
$USERI4
 70
     0
  9
$USERI5
 70
     0
  9
$USERR1
 40
0.0
  9
$USERR2
 40
0.0
  9
$USERR3
 40
0.0
  9
$USERR4
 40
0.0
  9
$USERR5
 40
0.0
  9
$WORLDVIEW
 70
     1
  9
$SHADEDGE
 70
     3
  9
$SHADEDIF
 70
    70
  9
$TILEMODE
 70
     1
  9
$MAXACTVP
 70
    64
  9
$PINSBASE
 10
0.0
 20
0.0
 30
0.0
  9
$PLIMCHECK
 70
     0
  9
$PEXTMIN
 10
1.000000000000000E+20
 20
1.000000000000000E+20
 30
1.000000000000000E+20
  9
$PEXTMAX
 10
-1.000000000000000E+20
 20
-1.000000000000000E+20
 30
-1.000000000000000E+20
  9
$PLIMMIN
 10
0.0
 20
0.0
  9
$PLIMMAX
 10
12.0
 20
9.0
  9
$UNITMODE
 70
     0
  9
$VISRETAIN
 70
     1
  9
$PLINEGEN
 70
     0
  9
$PSLTSCALE
 70
     1
  9
$TREEDEPTH
 70
  3020
  9
$CMLSTYLE
  2
Standard
  9
$CMLJUST
 70
     0
  9
$CMLSCALE
 40
1.0
  9
$PROXYGRAPHICS
 70
     1
  9
$MEASUREMENT
 70
     0
  9
$CELWEIGHT
370
    -1
  9
$ENDCAPS
280
     0
  9
$JOINSTYLE
280
     0
  9
$LWDISPLAY
290
     0
  9
$INSUNITS
 70
     4
  9
$HYPERLINKBASE
  1

  9
$STYLESHEET
  1

  9
$XEDIT
290
     1
  9
$CEPSNTYPE
380
     0
  9
$PSTYLEMODE
290
     1
  9
$FINGERPRINTGUID
  2
{CC1CF03C-A5A1-442C-8CF1-228701D3DDB0}
  9
$VERSIONGUID
  2
{DC3C5E42-219F-D843-A90A-13C16BBAB5E9}
  9
$EXTNAMES
290
     1
  9
$PSVPSCALE
 40
0.0
  9
$OLESTARTUP
290
     0
  9
$SORTENTS
280
   127
  9
$INDEXCTL
280
     0
  9
$HIDETEXT
280
     1
  9
$XCLIPFRAME
280
     2
  9
$HALOGAP
280
     0
  9
$OBSCOLOR
 70
   257
  9
$OBSLTYPE
280
     0
  9
$INTERSECTIONDISPLAY
280
     0
  9
$INTERSECTIONCOLOR
 70
   257
  9
$DIMASSOC
280
     2
  9
$PROJECTNAME
  1

  9
$CAMERADISPLAY
290
     0
  9
$LENSLENGTH
 40
50.0
  9
$CAMERAHEIGHT
 40
0.0
  9
$STEPSPERSEC
 40
2.0
  9
$STEPSIZE
 40
6.0
  9
$3DDWFPREC
 40
2.0
  9
$PSOLWIDTH
 40
0.25
  9
$PSOLHEIGHT
 40
4.0
  9
$LOFTANG1
 40
1.570795999999999
  9
$LOFTANG2
 40
1.570795999999999
  9
$LOFTMAG1
 40
0.0
  9
$LOFTMAG2
 40
0.0
  9
$LOFTPARAM
 70
     7
  9
$LOFTNORMALS
280
     1
  9
$LATITUDE
 40
37.795
  9
$LONGITUDE
 40
-122.394
  9
$NORTHDIRECTION
 40
0.0
  9
$TIMEZONE
 70
 -8000
  9
$LIGHTGLYPHDISPLAY
280
     1
  9
$TILEMODELIGHTSYNCH
280
     1
  9
$CMATERIAL
347
44
  9
$SOLIDHIST
280
     0
  9
$SHOWHIST
280
     1
  9
$DWFFRAME
280
     2
  9
$DGNFRAME
280
     2
  9
$REALWORLDSCALE
290
     1
  9
$INTERFERECOLOR
 62
   256
  9
$INTERFEREOBJVS
345
33
  9
$INTERFEREVPVS
346
30
  9
$CSHADOW
280
     0
  9
$SHADOWPLANELOCATION
 40
0.0
  0
ENDSEC
  0
SECTION
  2
CLASSES
  0
CLASS
  1
ACDBDICTIONARYWDFLT
  2
AcDbDictionaryWithDefault
  3
ObjectDBX Classes
 90
        0
 91
        1
280
     0
281
     0
  0
CLASS
  1
VISUALSTYLE
  2
AcDbVisualStyle
  3
ObjectDBX Classes
 90
     4095
 91
       24
280
     0
281
     0
  0
CLASS
  1
MATERIAL
  2
AcDbMaterial
  3
ObjectDBX Classes
 90
     1153
 91
        3
280
     0
281
     0
  0
CLASS
  1
SCALE
  2
AcDbScale
  3
ObjectDBX Classes
 90
     1153
 91
       33
280
     0
281
     0
  0
CLASS
  1
TABLESTYLE
  2
AcDbTableStyle
  3
ObjectDBX Classes
 90
     4095
 91
        1
280
     0
281
     0
  0
CLASS
  1
MLEADERSTYLE
  2
AcDbMLeaderStyle
  3
ACDB_MLEADERSTYLE_CLASS
 90
     4095
 91
        1
280
     0
281
     0
  0
CLASS
  1
SUN
  2
AcDbSun
  3
SCENEOE
 90
     1153
 91
        0
280
     0
281
     0
  0
CLASS
  1
DICTIONARYVAR
  2
AcDbDictionaryVar
  3
ObjectDBX Classes
 90
        0
 91
       14
280
     0
281
     0
  0
CLASS
  1
CELLSTYLEMAP
  2
AcDbCellStyleMap
  3
ObjectDBX Classes
 90
     1152
 91
        2
280
     0
281
     0
  0
CLASS
  1
ACDBSECTIONVIEWSTYLE
  2
AcDbSectionViewStyle
  3
ObjectDBX Classes
 90
     1025
 91
        1
280
     0
281
     0
  0
CLASS
  1
ACDBDETAILVIEWSTYLE
  2
AcDbDetailViewStyle
  3
ObjectDBX Classes
 90
     1025
 91
        1
280
     0
281
     0
  0
CLASS
  1
SORTENTSTABLE
  2
AcDbSortentsTable
  3
ObjectDBX Classes
 90
        0
 91
        4
280
     0
281
     0
  0
ENDSEC
  0
SECTION
  2
TABLES
  0
TABLE
  2
VPORT
  5
8
330
0
100
AcDbSymbolTable
 70
     1
  0
VPORT
  5
29
330
8
100
AcDbSymbolTableRecord
100
AcDbViewportTableRecord
  2
*Active
 70
     0
 10
0.0
 20
0.0
 11
1.0
 21
1.0
 12
90.21122879712141
 22
-10.22445960486766
 13
0.0
 23
0.0
 14
0.5
 24
0.5
 15
0.5
 25
0.5
 16
0.0
 26
0.0
 36
1.0
 17
0.0
 27
0.0
 37
0.0
 40
908.5434533208644
 41
1.7162471395881
 42
50.0
 43
0.0
 44
0.0
 50
0.0
 51
0.0
 71
     0
 72
   100
 73
     1
 74
     3
 75
     0
 76
     0
 77
     0
 78
     0
281
     0
 65
     1
110
0.0
120
0.0
130
0.0
111
1.0
121
0.0
131
0.0
112
0.0
122
1.0
132
0.0
 79
     0
146
0.0
348
2F
 60
     3
 61
     5
292
     1
282
     1
141
0.0
142
0.0
 63
   250
421
  3355443
1001
ACAD_NAV_VCDISPLAY
1070
     3
  0
ENDTAB
  0
TABLE
  2
LTYPE
  5
5
330
0
100
AcDbSymbolTable
 70
     2
  0
LTYPE
  5
14
330
5
100
AcDbSymbolTableRecord
100
AcDbLinetypeTableRecord
  2
ByBlock
 70
     0
  3

 72
    65
 73
     0
 40
0.0
  0
LTYPE
  5
15
330
5
100
AcDbSymbolTableRecord
100
AcDbLinetypeTableRecord
  2
ByLayer
 70
     0
  3

 72
    65
 73
     0
 40
0.0
  0
LTYPE
  5
16
330
5
100
AcDbSymbolTableRecord
100
AcDbLinetypeTableRecord
  2
Continuous
 70
     0
  3
Solid line
 72
    65
 73
     0
 40
0.0
  0
ENDTAB
  0
TABLE
  2
LAYER
  5
2
102
{ACAD_XDICTIONARY
360
2E8
102
}
330
0
100
AcDbSymbolTable
 70
     3
  0
LAYER
  5
10
102
{ACAD_XDICTIONARY
360
2FA
102
}
330
2
100
AcDbSymbolTableRecord
100
AcDbLayerTableRecord
  2
0
 70
     0
 62
     7
  6
Continuous
370
    -3
390
F
347
46
  0
LAYER
  5
6F
102
{ACAD_XDICTIONARY
360
2FC
102
}
330
2
100
AcDbSymbolTableRecord
100
AcDbLayerTableRecord
  2
layer 1
 70
     0
 62
     7
  6
Continuous
370
    -3
390
F
347
46
  0
LAYER
  5
3E2
102
{ACAD_XDICTIONARY
360
3E3
102
}
330
2
100
AcDbSymbolTableRecord
100
AcDbLayerTableRecord
  2
标注
 70
     0
 62
    80
  6
Continuous
370
     5
390
F
347
46
1001
AcAecLayerStandard
1000

1000

  0
ENDTAB
  0
TABLE
  2
STYLE
  5
3
330
0
100
AcDbSymbolTable
 70
     1
  0
STYLE
  5
11
330
3
100
AcDbSymbolTableRecord
100
AcDbTextStyleTableRecord
  2
Standard
 70
     0
 40
0.0
 41
1.0
 50
0.0
 71
     0
 42
0.2
  3
txt
  4

  0
ENDTAB
  0
TABLE
  2
VIEW
  5
6
330
0
100
AcDbSymbolTable
 70
     1
  0
ENDTAB
  0
TABLE
  2
UCS
  5
7
330
0
100
AcDbSymbolTable
 70
     0
  0
ENDTAB
  0
TABLE
  2
APPID
  5
9
330
0
100
AcDbSymbolTable
 70
    11
  0
APPID
  5
12
330
9
100
AcDbSymbolTableRecord
100
AcDbRegAppTableRecord
  2
ACAD
 70
     0
  0
APPID
  5
6E
330
9
100
AcDbSymbolTableRecord
100
AcDbRegAppTableRecord
  2
ODA
 70
     0
  0
APPID
  5
2B4
330
9
100
AcDbSymbolTableRecord
100
AcDbRegAppTableRecord
  2
ACAD_MLEADERVER
 70
     0
  0
APPID
  5
2C4
330
9
100
AcDbSymbolTableRecord
100
AcDbRegAppTableRecord
  2
ACAD_NAV_VCDISPLAY
 70
     0
  0
APPID
  5
2E6
330
9
100
AcDbSymbolTableRecord
100
AcDbRegAppTableRecord
  2
ACAD_DSTYLE_DIMJAG
 70
     0
  0
APPID
  5
2E7
330
9
100
AcDbSymbolTableRecord
100
AcDbRegAppTableRecord
  2
ACAD_DSTYLE_DIMTALN
 70
     0
  0
APPID
  5
2F8
330
9
100
AcDbSymbolTableRecord
100
AcDbRegAppTableRecord
  2
ACAD_EXEMPT_FROM_CAD_STANDARDS
 70
     0
  0
APPID
  5
3E6
330
9
100
AcDbSymbolTableRecord
100
AcDbRegAppTableRecord
  2
AcAecLayerStandard
 70
     0
  0
APPID
  5
3E7
330
9
100
AcDbSymbolTableRecord
100
AcDbRegAppTableRecord
  2
ACAD_PSEXT
 70
     0
  0
APPID
  5
3E8
330
9
100
AcDbSymbolTableRecord
100
AcDbRegAppTableRecord
  2
ACAD_DSTYLE_DIMBREAK
 70
     0
  0
APPID
  5
3E9
330
9
100
AcDbSymbolTableRecord
100
AcDbRegAppTableRecord
  2
AcDbDynamicBlockGUID
 70
     0
  0
ENDTAB
  0
TABLE
  2
DIMSTYLE
  5
A
330
0
100
AcDbSymbolTable
 70
     3
100
AcDbDimStyleTable
 71
     0
  0
DIMSTYLE
105
27
330
A
100
AcDbSymbolTableRecord
100
AcDbDimStyleTableRecord
  2
Standard
 70
     0
340
11
  0
DIMSTYLE
105
3E4
330
A
100
AcDbSymbolTableRecord
100
AcDbDimStyleTableRecord
  2
中14+
 70
     0
  4
"
 41
14.0
 42
10.0
 43
1.0
 44
2.0
 73
     0
 74
     0
 78
     8
140
14.0
141
2.0
143
0.03937007874016
147
5.0
171
     3
172
     1
179
     1
271
     1
272
     1
273
     7
274
     3
278
    44
283
     0
284
     8
340
11
1001
ACAD_DSTYLE_DIMJAG
1070
   388
1040
1.5
1001
ACAD_DSTYLE_DIMBREAK
1070
   391
1040
0.2
1001
ACAD_DSTYLE_DIMTALN
1070
   392
1070
     0
  0
DIMSTYLE
105
3E5
330
A
100
AcDbSymbolTableRecord
100
AcDbDimStyleTableRecord
  2
毫米英寸10+
 70
     0
  3
mm
  4
"
 41
10.0
 42
12.0
 44
5.0
 73
     0
 74
     0
 78
     8
 79
     2
140
10.0
143
0.03937
147
5.0
170
     1
171
     4
172
     1
176
   256
177
   256
178
   256
179
     1
271
     1
272
     1
273
     7
274
     4
278
    44
340
11
1001
ACAD_DSTYLE_DIMBREAK
1070
   391
1040
0.125
1001
ACAD_DSTYLE_DIMJAG
1070
   388
1040
1.5
1001
ACAD_DSTYLE_DIMTALN
1070
   392
1070
     0
  0
ENDTAB
  0
TABLE
  2
BLOCK_RECORD
  5
1
330
0
100
AcDbSymbolTable
 70
     5
  0
BLOCK_RECORD
  5
1F
330
1
100
AcDbSymbolTableRecord
100
AcDbBlockTableRecord
  2
*Model_Space
340
22
 70
     0
280
     1
281
     0
  0
BLOCK_RECORD
  5
1B
330
1
100
AcDbSymbolTableRecord
100
AcDbBlockTableRecord
  2
*Paper_Space
340
1E
 70
     0
280
     1
281
     0
  0
BLOCK_RECORD
  5
23
330
1
100
AcDbSymbolTableRecord
100
AcDbBlockTableRecord
  2
*Paper_Space0
340
26
 70
     0
280
     1
281
     0
  0
BLOCK_RECORD
  5
2CE
330
1
100
AcDbSymbolTableRecord
100
AcDbBlockTableRecord
  2
1
340
0
310
28000000200000002000000001002000000000000010000001000000010000000000000000000000302821FF302821FF302821FF302821FF302821FF302821FF302821FF302821FF302821FF302821FF302821FF302821FF302821FF302821FF302821FF302821FF302821FF302821FF302821FF302821FF302821FF302821
310
FF302821FF302821FF302821FF302821FF302821FF302821FF302821FF302821FF302821FF302821FF302821FF302821FF302821FF302821FF302821FF302821FF302821FF302821FF302821FF302821FF302821FF302821FF302821FF302821FF302821FF302821FF302821FF302821FF302821FF302821FF302821FF3028
310
21FF302821FF302821FF302821FF302821FF302821FF302821FF302821FF302821FF302821FF302821FF302821FF302821FF302821FF302821FF302821FF302821FF302821FF302821FF302821FF302821FF302821FF302821FF302821FF302821FF302821FF302821FF302821FF302821FF302821FF302821FF302821FF30
310
2821FF302821FF302821FF302821FF302821FF302821FF302821FF302821FF302821FF302821FF302821FF302821FF302821FF302821FF302821FF302821FF302821FF302821FF302821FF302821FF302821FF302821FF302821FF302821FF302821FF302821FF302821FF302821FF302821FF302821FF302821FF302821FF
310
302821FF302821FF302821FF302821FF302821FF302821FF302821FF302821FF302821FF302821FF302821FF302821FF302821FF302821FF302821FF302821FF302821FF302821FF302821FF302821FF302821FF302821FF302821FF302821FF302821FF302821FF302821FF302821FF302821FF302821FF302821FF302821
310
FF302821FF302821FF302821FF302821FF302821FF302821FF302821FF302821FF302821FF302821FF302821FF302821FF302821FF302821FF302821FF302821FF302821FF302821FF302821FF302821FF302821FF302821FF302821FF302821FF302821FF302821FF302821FF302821FF302821FF302821FF302821FF3028
310
21FF302821FF302821FF302821FF302821FF302821FF302821FF302821FF302821FF302821FF302821FF302821FF302821FF302821FF302821FF302821FF302821FF302821FF302821FF302821FF302821FF302821FF302821FF302821FF302821FF302821FF302821FF302821FF302821FF302821FF302821FF302821FF30
310
2821FF302821FF302821FF302821FF302821FF302821FF302821FF302821FF302821FF302821FF302821FF302821FF302821FF302821FF302821FF302821FF302821FF302821FF302821FF302821FF302821FF302821FF302821FF302821FF302821FF302821FF302821FF302821FF302821FF302821FF302821FF302821FF
310
302821FF302821FF302821FF302821FF302821FF302821FF302821FF302821FF302821FF302821FF302821FF302821FF302821FF302821FF302821FF302821FF302821FF302821FF302821FF302821FF302821FF302821FF302821FF302821FF302821FF302821FF302821FF302821FF302821FF302821FF302821FF302821
310
FF302821FF302821FF302821FF302821FF302821FF302821FF302821FF302821FF302821FF302821FF302821FF302821FF302821FF302821FF302821FF302821FF302821FF302821FF302821FF302821FF302821FF302821FF302821FF302821FF302821FF302821FF302821FF302821FF302821FF302821FF302821FF3028
310
21FF302821FF302821FF302821FF302821FF302821FF302821FF302821FF302821FF302821FF302821FF302821FF302821FF302821FF302821FF302821FF302821FF302821FF302821FF302821FF302821FF302821FF302821FF302821FF302821FF302821FF302821FF302821FF302821FF302821FF302821FF302821FF30
310
2821FF302821FF302821FF302821FF302821FF302821FF302821FF302821FF302821FF302821FF302821FF302821FF302821FF302821FF302821FF302821FF302821FF302821FF302821FF302821FF302821FF302821FF302821FF302821FF302821FF302821FF302821FF302821FF302821FF302821FF302821FF302821FF
310
302821FF302821FF302821FF302821FF302821FF302821FF302821FF302821FF302821FF302821FF302821FF302821FF302821FF302821FF302821FF302821FF302821FFFF0000FFFF0000FFFF0000FF302821FF302821FF302821FF302821FF302821FF302821FF302821FF302821FF302821FF302821FF302821FF302821
310
FF302821FF302821FF302821FF302821FF302821FF302821FF302821FF302821FF302821FF302821FF302821FF302821FF302821FF302821FF302821FFFF0000FFFF0000FFFF0000FFFF0000FFFF0000FFFF0000FF302821FF302821FF302821FFFF0000FFFF0000FF302821FF302821FFFF0000FFFF0000FFFF0000FFFF00
310
00FFFF0000FF302821FFFF0000FFFF0000FFFF0000FFFF0000FF302821FFFF0000FFFF0000FFFF0000FFFF0000FF302821FF302821FF302821FF302821FFFF0000FF302821FF302821FFFF0000FFFF0000FFFF0000FFFF0000FF302821FF302821FFFF0000FFFF0000FF302821FF302821FFFF0000FFFF0000FFFF0000FFFF
310
0000FFFF0000FFFF0000FFFF0000FFFF0000FFFF0000FFFF0000FFFF0000FFFF0000FFFF0000FFFF0000FFFF0000FF302821FF302821FF302821FFFF0000FFFF0000FF302821FF302821FFFF0000FF302821FFFF0000FFFF0000FF302821FF302821FFFF0000FFFF0000FF302821FF302821FFFF0000FFFF0000FFFF0000FF
310
FF0000FFFF0000FFFF0000FFFF0000FF302821FFFF0000FFFF0000FFFF0000FF302821FFFF0000FFFF0000FF302821FF302821FF302821FF302821FFFF0000FFFF0000FF302821FF302821FFFF0000FF302821FFFF0000FFFF0000FFFF0000FF302821FFFF0000FFFF0000FFFF0000FF302821FFFF0000FFFF0000FFFF0000
310
FF302821FFFF0000FFFF0000FF302821FF302821FFFF0000FFFF0000FFFF0000FF302821FFFF0000FFFF0000FF302821FF302821FF302821FF302821FF302821FFFF0000FF302821FF302821FFFF0000FF302821FFFF0000FFFF0000FF302821FF302821FFFF0000FFFF0000FFFF0000FFFF0000FFFF0000FFFF0000FFFF00
310
00FF302821FFFF0000FFFF0000FF302821FFFF0000FFFF0000FFFF0000FFFF0000FF302821FFFF0000FFFF0000FF302821FF302821FF302821FF302821FF302821FFFF0000FFFF0000FF302821FFFF0000FFFF0000FFFF0000FFFF0000FF302821FFFF0000FFFF0000FFFF0000FFFF0000FF302821FF302821FF302821FF30
310
2821FF302821FF302821FF302821FF302821FF302821FF302821FF302821FF302821FF302821FF302821FF302821FF302821FF302821FF302821FF302821FF302821FF302821FFFF0000FFFF0000FFFF0000FFFF0000FFFF0000FF302821FFFF0000FF302821FF302821FF302821FF302821FF302821FF302821FF302821FF
310
302821FF302821FF302821FF302821FF302821FF302821FF302821FF302821FF302821FF302821FF302821FF302821FF302821FF302821FF302821FF302821FF302821FF302821FF302821FF302821FF302821FF302821FF302821FF302821FF302821FF302821FF302821FF302821FF302821FF302821FF302821FF302821
310
FF302821FF302821FF302821FF302821FF302821FF302821FF302821FF302821FF302821FF302821FF302821FF302821FF302821FF302821FF302821FF302821FF302821FF302821FF302821FF302821FF302821FF302821FF302821FF302821FF302821FF302821FF302821FF302821FF302821FF302821FF302821FF3028
310
21FF302821FF302821FF302821FF302821FF302821FF302821FF302821FF302821FF302821FF302821FF302821FF302821FF302821FF302821FF302821FF302821FF302821FF302821FF302821FF302821FF302821FF302821FF302821FF302821FF302821FF302821FF302821FF302821FF302821FF302821FF302821FF30
310
2821FF302821FF302821FF302821FF302821FF302821FF302821FF302821FF302821FF302821FF302821FF302821FF302821FF302821FF302821FF302821FF302821FF302821FF302821FF302821FF302821FF302821FF302821FF302821FF302821FF302821FF302821FF302821FF302821FF302821FF302821FF302821FF
310
302821FF302821FF302821FF302821FF302821FF302821FF302821FF302821FF302821FF302821FF302821FF302821FF302821FF302821FF302821FF302821FF302821FF302821FF302821FF302821FF302821FF302821FF302821FF302821FF302821FF302821FF302821FF302821FF302821FF302821FF302821FF302821
310
FF302821FF302821FF302821FF302821FF302821FF302821FF302821FF302821FF302821FF302821FF302821FF302821FF302821FF302821FF302821FF302821FF302821FF302821FF302821FF302821FF302821FF302821FF302821FF302821FF302821FF302821FF302821FF302821FF302821FF302821FF302821FF3028
310
21FF302821FF302821FF302821FF302821FF302821FF302821FF302821FF302821FF302821FF302821FF302821FF302821FF302821FF302821FF302821FF302821FF302821FF302821FF302821FF302821FF302821FF302821FF302821FF302821FF302821FF302821FF302821FF302821FF302821FF302821FF302821FF30
310
2821FF302821FF302821FF302821FF302821FF302821FF302821FF302821FF302821FF302821FF302821FF302821FF302821FF302821FF302821FF302821FF302821FF302821FF302821FF302821FF302821FF302821FF302821FF302821FF302821FF302821FF302821FF302821FF302821FF302821FF302821FF302821FF
310
302821FF302821FF302821FF302821FF302821FF302821FF302821FF302821FF302821FF302821FF302821FF302821FF302821FF302821FF302821FF302821FF302821FF302821FF302821FF302821FF302821FF302821FF302821FF302821FF302821FF302821FF302821FF302821FF302821FF302821FF302821FF302821
310
FF302821FF302821FF302821FF302821FF302821FF302821FF302821FF302821FF302821FF302821FF302821FF302821FF302821FF302821FF302821FF302821FF302821FF302821FF302821FF302821FF302821FF302821FF302821FF302821FF302821FF302821FF302821FF302821FF302821FF302821FF302821FF3028
310
21FF302821FF302821FF302821FF302821FF302821FF302821FF302821FF302821FF302821FF302821FF302821FF302821FF302821FF302821FF302821FF302821FF302821FF302821FF302821FF302821FF302821FF302821FF302821FF302821FF302821FF302821FF302821FF302821FF302821FF302821FF302821FF30
310
2821FF302821FF302821FF302821FF302821FF302821FF302821FF302821FF302821FF302821FF302821FF302821FF302821FF302821FF302821FF302821FF302821FF302821FF302821FF302821FF302821FF302821FF302821FF302821FF302821FF302821FF302821FF302821FF302821FF302821FF302821FF302821FF
310
302821FF302821FF302821FF302821FF302821FF302821FF302821FF302821FF302821FF302821FF302821FF302821FF302821FF302821FF302821FF302821FF302821FF302821FF
 70
     0
280
     1
281
     0
  0
BLOCK_RECORD
  5
3CD
102
{ACAD_XDICTIONARY
360
3CE
102
}
330
1
100
AcDbSymbolTableRecord
100
AcDbBlockTableRecord
  2
1.1
340
0
102
{BLKREFS
331
3F4
102
}
 70
     4
280
     1
281
     0
1001
AcDbDynamicBlockGUID
1000
{33B41307-7CAF-1E40-B89A-15D7E0E20E69}
  0
ENDTAB
  0
ENDSEC
  0
SECTION
  2
BLOCKS
  0
BLOCK
  5
20
330
1F
100
AcDbEntity
  8
0
100
AcDbBlockBegin
  2
*Model_Space
 70
     0
 10
0.0
 20
0.0
 30
0.0
  3
*Model_Space
  1

  0
ENDBLK
  5
21
330
1F
100
AcDbEntity
  8
0
100
AcDbBlockEnd
  0
BLOCK
  5
1C
330
1B
100
AcDbEntity
 67
     1
  8
0
100
AcDbBlockBegin
  2
*Paper_Space
 70
     0
 10
0.0
 20
0.0
 30
0.0
  3
*Paper_Space
  1

  0
ENDBLK
  5
1D
330
1B
100
AcDbEntity
 67
     1
  8
0
100
AcDbBlockEnd
  0
BLOCK
  5
24
330
23
100
AcDbEntity
 67
     1
  8
0
100
AcDbBlockBegin
  2
*Paper_Space0
 70
     0
 10
0.0
 20
0.0
 30
0.0
  3
*Paper_Space0
  1

  0
ENDBLK
  5
25
330
23
100
AcDbEntity
 67
     1
  8
0
100
AcDbBlockEnd
  0
BLOCK
  5
2CF
330
2CE
100
AcDbEntity
  8
0
100
AcDbBlockBegin
  2
1
 70
     0
 10
0.0
 20
0.0
 30
0.0
  3
1
  1

  0
SPLINE
  5
2D0
330
2CE
100
AcDbEntity
  8
0
370
     0
100
AcDbSpline
210
0.0
220
0.0
230
1.0
 70
     9
 71
     3
 72
    17
 73
    13
 74
     0
 42
0.000000001
 43
0.0000000001
 40
0.0
 40
0.0
 40
0.0
 40
0.0
 40
1.0
 40
1.0
 40
1.0
 40
2.0
 40
2.0
 40
2.0
 40
3.0
 40
3.0
 40
3.0
 40
4.0
 40
4.0
 40
4.0
 40
4.0
 10
3941.638732946744
 20
4290.017763130014
 30
0.0
 10
3923.027751012511
 20
4290.017763130014
 30
0.0
 10
3907.886520694843
 20
4274.815577778859
 30
0.0
 10
3907.886520694843
 20
4256.12924586771
 30
0.0
 10
3907.886520694843
 20
4237.443761624538
 30
0.0
 10
3923.027751012511
 20
4222.241113909034
 30
0.0
 10
3941.638732946744
 20
4222.241113909034
 30
0.0
 10
3960.249499110946
 20
4222.241113909034
 30
0.0
 10
3975.390205415685
 20
4237.443761624538
 30
0.0
 10
3975.390205415685
 20
4256.12924586771
 30
0.0
 10
3975.390205415685
 20
4274.815577778859
 30
0.0
 10
3960.249499110946
 20
4290.017763130014
 30
0.0
 10
3941.638732946744
 20
4290.017763130014
 30
0.0
  0
SPLINE
  5
2D1
330
2CE
100
AcDbEntity
  8
0
370
     0
100
AcDbSpline
210
0.0
220
0.0
230
1.0
 70
     9
 71
     3
 72
    32
 73
    28
 74
     0
 42
0.000000001
 43
0.0000000001
 40
0.0
 40
0.0
 40
0.0
 40
0.0
 40
1.0
 40
1.0
 40
1.0
 40
2.0
 40
2.0
 40
2.0
 40
3.0
 40
3.0
 40
3.0
 40
4.0
 40
4.0
 40
4.0
 40
5.0
 40
5.0
 40
5.0
 40
6.0
 40
6.0
 40
6.0
 40
7.0
 40
7.0
 40
7.0
 40
8.0
 40
8.0
 40
8.0
 40
9.0
 40
9.0
 40
9.0
 40
9.0
 10
3942.674845218828
 20
4224.339523687562
 30
0.0
 10
3942.674845218828
 20
4224.339523687562
 30
0.0
 10
3942.674845218828
 20
4230.480600748832
 30
0.0
 10
3942.674845218828
 20
4230.480600748832
 30
0.0
 10
3956.2969004036
 20
4231.029057340892
 30
0.0
 10
3967.211689021515
 20
4242.321150680615
 30
0.0
 10
3967.211689021515
 20
4256.12924586771
 30
0.0
 10
3967.211689021515
 20
4270.28705803706
 30
0.0
 10
3955.739797598192
 20
4281.805078010375
 30
0.0
 10
3941.638732946744
 20
4281.805078010375
 30
0.0
 10
3941.066572475671
 20
4281.805078010375
 30
0.0
 10
3940.602774796109
 20
4281.341280330813
 30
0.0
 10
3940.602774796109
 20
4280.768965738291
 30
0.0
 10
3940.602774796109
 20
4280.768965738291
 30
0.0
 10
3940.602774796109
 20
4224.339523687562
 30
0.0
 10
3940.602774796109
 20
4224.339523687562
 30
0.0
 10
3923.612842273243
 20
4224.891894964453
 30
0.0
 10
3909.958729826867
 20
4238.934547586342
 30
0.0
 10
3909.958729826867
 20
4256.12924586771
 30
0.0
 10
3909.958729826867
 20
4273.672905936229
 30
0.0
 10
3924.170407443
 20
4287.945692707295
 30
0.0
 10
3941.638732946744
 20
4287.945692707295
 30
0.0
 10
3959.106842680458
 20
4287.945692707295
 30
0.0
 10
3973.318150405111
 20
4273.672905936229
 30
0.0
 10
3973.318150405111
 20
4256.12924586771
 30
0.0
 10
3973.318150405111
 20
4238.934547586342
 30
0.0
 10
3959.664253728764
 20
4224.891894964453
 30
0.0
 10
3942.674845218828
 20
4224.339523687562
 30
0.0
  0
SPLINE
  5
2D2
330
2CE
100
AcDbEntity
  8
0
370
     0
100
AcDbSpline
210
0.0
220
0.0
230
1.0
 70
     9
 71
     3
 72
    14
 73
    10
 74
     0
 42
0.000000001
 43
0.0000000001
 40
0.0
 40
0.0
 40
0.0
 40
0.0
 40
1.0
 40
1.0
 40
1.0
 40
2.0
 40
2.0
 40
2.0
 40
3.0
 40
3.0
 40
3.0
 40
3.0
 10
3942.674845218828
 20
4232.552809880857
 30
0.0
 10
3942.674845218828
 20
4232.552809880857
 30
0.0
 10
3942.674845218828
 20
4279.70637540109
 30
0.0
 10
3942.674845218828
 20
4279.70637540109
 30
0.0
 10
3955.153935730211
 20
4279.159567908545
 30
0.0
 10
3965.139618598796
 20
4268.795501468004
 30
0.0
 10
3965.139618598796
 20
4256.12924586771
 30
0.0
 10
3965.139618598796
 20
4243.463822523248
 30
0.0
 10
3955.153935730211
 20
4233.099463251951
 30
0.0
 10
3942.674845218828
 20
4232.552809880857
 30
0.0
  0
HATCH
  5
2D3
330
2CE
100
AcDbEntity
  8
0
100
AcDbHatch
 10
0.0
 20
0.0
 30
0.0
210
0.0
220
0.0
230
1.0
  2
SOLID
 70
     1
 71
     0
 91
        3
 92
        1
 93
        1
 72
     4
 94
        3
 73
     0
 74
     0
 95
       17
 96
       13
 40
0.0
 40
0.0
 40
0.0
 40
0.0
 40
1.0
 40
1.0
 40
1.0
 40
2.0
 40
2.0
 40
2.0
 40
3.0
 40
3.0
 40
3.0
 40
4.0
 40
4.0
 40
4.0
 40
4.0
 10
3941.638732946744
 20
4290.017763130014
 10
3923.027751012511
 20
4290.017763130014
 10
3907.886520694843
 20
4274.815577778859
 10
3907.886520694843
 20
4256.12924586771
 10
3907.886520694843
 20
4237.443761624538
 10
3923.027751012511
 20
4222.241113909034
 10
3941.638732946744
 20
4222.241113909034
 10
3960.249499110946
 20
4222.241113909034
 10
3975.390205415685
 20
4237.443761624538
 10
3975.390205415685
 20
4256.12924586771
 10
3975.390205415685
 20
4274.815577778859
 10
3960.249499110946
 20
4290.017763130014
 10
3941.638732946744
 20
4290.017763130014
 97
        0
 97
        0
 92
        1
 93
        1
 72
     4
 94
        3
 73
     0
 74
     0
 95
       32
 96
       28
 40
0.0
 40
0.0
 40
0.0
 40
0.0
 40
1.0
 40
1.0
 40
1.0
 40
2.0
 40
2.0
 40
2.0
 40
3.0
 40
3.0
 40
3.0
 40
4.0
 40
4.0
 40
4.0
 40
5.0
 40
5.0
 40
5.0
 40
6.0
 40
6.0
 40
6.0
 40
7.0
 40
7.0
 40
7.0
 40
8.0
 40
8.0
 40
8.0
 40
9.0
 40
9.0
 40
9.0
 40
9.0
 10
3942.674845218828
 20
4224.339523687562
 10
3942.674845218828
 20
4224.339523687562
 10
3942.674845218828
 20
4230.480600748832
 10
3942.674845218828
 20
4230.480600748832
 10
3956.2969004036
 20
4231.029057340892
 10
3967.211689021515
 20
4242.321150680615
 10
3967.211689021515
 20
4256.12924586771
 10
3967.211689021515
 20
4270.28705803706
 10
3955.739797598192
 20
4281.805078010375
 10
3941.638732946744
 20
4281.805078010375
 10
3941.066572475671
 20
4281.805078010375
 10
3940.602774796109
 20
4281.341280330813
 10
3940.602774796109
 20
4280.768965738291
 10
3940.602774796109
 20
4280.768965738291
 10
3940.602774796109
 20
4224.339523687562
 10
3940.602774796109
 20
4224.339523687562
 10
3923.612842273243
 20
4224.891894964453
 10
3909.958729826867
 20
4238.934547586342
 10
3909.958729826867
 20
4256.12924586771
 10
3909.958729826867
 20
4273.672905936229
 10
3924.170407443
 20
4287.945692707295
 10
3941.638732946744
 20
4287.945692707295
 10
3959.106842680458
 20
4287.945692707295
 10
3973.318150405111
 20
4273.672905936229
 10
3973.318150405111
 20
4256.12924586771
 10
3973.318150405111
 20
4238.934547586342
 10
3959.664253728764
 20
4224.891894964453
 10
3942.674845218828
 20
4224.339523687562
 97
        0
 97
        0
 92
        1
 93
        1
 72
     4
 94
        3
 73
     0
 74
     0
 95
       14
 96
       10
 40
0.0
 40
0.0
 40
0.0
 40
0.0
 40
1.0
 40
1.0
 40
1.0
 40
2.0
 40
2.0
 40
2.0
 40
3.0
 40
3.0
 40
3.0
 40
3.0
 10
3942.674845218828
 20
4232.552809880857
 10
3942.674845218828
 20
4232.552809880857
 10
3942.674845218828
 20
4279.70637540109
 10
3942.674845218828
 20
4279.70637540109
 10
3955.153935730211
 20
4279.159567908545
 10
3965.139618598796
 20
4268.795501468004
 10
3965.139618598796
 20
4256.12924586771
 10
3965.139618598796
 20
4243.463822523248
 10
3955.153935730211
 20
4233.099463251951
 10
3942.674845218828
 20
4232.552809880857
 97
        0
 97
        0
 75
     2
 76
     1
 98
        0
450
        0
451
        0
460
0.0
461
0.0
452
        1
462
0.0
453
        0
470

  0
SPLINE
  5
2D4
330
2CE
100
AcDbEntity
  8
0
370
     0
100
AcDbSpline
210
0.0
220
0.0
230
1.0
 70
     9
 71
     3
 72
   101
 73
    97
 74
     0
 42
0.000000001
 43
0.0000000001
 40
0.0
 40
0.0
 40
0.0
 40
0.0
 40
1.0
 40
1.0
 40
1.0
 40
2.0
 40
2.0
 40
2.0
 40
3.0
 40
3.0
 40
3.0
 40
4.0
 40
4.0
 40
4.0
 40
5.0
 40
5.0
 40
5.0
 40
6.0
 40
6.0
 40
6.0
 40
7.0
 40
7.0
 40
7.0
 40
8.0
 40
8.0
 40
8.0
 40
9.0
 40
9.0
 40
9.0
 40
10.0
 40
10.0
 40
10.0
 40
11.0
 40
11.0
 40
11.0
 40
12.0
 40
12.0
 40
12.0
 40
13.0
 40
13.0
 40
13.0
 40
14.0
 40
14.0
 40
14.0
 40
15.0
 40
15.0
 40
15.0
 40
16.0
 40
16.0
 40
16.0
 40
17.0
 40
17.0
 40
17.0
 40
18.0
 40
18.0
 40
18.0
 40
19.0
 40
19.0
 40
19.0
 40
20.0
 40
20.0
 40
20.0
 40
21.0
 40
21.0
 40
21.0
 40
22.0
 40
22.0
 40
22.0
 40
23.0
 40
23.0
 40
23.0
 40
24.0
 40
24.0
 40
24.0
 40
25.0
 40
25.0
 40
25.0
 40
26.0
 40
26.0
 40
26.0
 40
27.0
 40
27.0
 40
27.0
 40
28.0
 40
28.0
 40
28.0
 40
29.0
 40
29.0
 40
29.0
 40
30.0
 40
30.0
 40
30.0
 40
31.0
 40
31.0
 40
31.0
 40
32.0
 40
32.0
 40
32.0
 40
32.0
 10
3999.199713106554
 20
4261.317528712782
 30
0.0
 10
3999.199713106554
 20
4270.213295511077
 30
0.0
 10
3999.199713106554
 20
4271.809978321194
 30
0.0
 10
3999.085626244387
 20
4273.634760877348
 30
0.0
 10
3998.971540461072
 20
4275.573608718665
 30
0.0
 10
3998.515347596219
 20
4276.486007702813
 30
0.0
 10
3996.633612540637
 20
4276.885151434089
 30
0.0
 10
3996.177413048562
 20
4276.999232131397
 30
0.0
 10
3995.207989127904
 20
4277.056210831473
 30
0.0
 10
3994.694749287176
 20
4277.056210831473
 30
0.0
 10
3994.466649541137
 20
4277.056210831473
 30
0.0
 10
3994.2385497951
 20
4277.170291528782
 30
0.0
 10
3994.2385497951
 20
4277.398391274819
 30
0.0
 10
3994.2385497951
 20
4277.740494657439
 30
0.0
 10
3994.523689889792
 20
4277.854575354749
 30
0.0
 10
3995.150933367104
 20
4277.854652415473
 30
0.0
 10
3997.717046262739
 20
4277.854652415473
 30
0.0
 10
4001.138490052004
 20
4277.683608430236
 30
0.0
 10
4001.594689544079
 20
4277.683608430236
 30
0.0
 10
4002.849253559428
 20
4277.683608430236
 30
0.0
 10
4006.156622816245
 20
4277.854652415473
 30
0.0
 10
4008.779769895675
 20
4277.854575354749
 30
0.0
 10
4015.907747820795
 20
4277.854575354749
 30
0.0
 10
4018.473854486745
 20
4275.459528021356
 30
0.0
 10
4019.386238035701
 20
4274.604184798006
 30
0.0
 10
4020.640802019357
 20
4273.40666113131
 30
0.0
 10
4022.237407728416
 20
4270.840554400535
 30
0.0
 10
4022.237407728416
 20
4267.818325238411
 30
0.0
 10
4022.237407728416
 20
4259.720845902665
 30
0.0
 10
4016.306891541987
 20
4254.246606119218
 30
0.0
 10
4008.209489706292
 20
4254.246606119218
 30
0.0
 10
4007.924349611601
 20
4254.246606119218
 30
0.0
 10
4007.297106134287
 20
4254.246606119218
 30
0.0
 10
4007.011966039596
 20
4254.303492346422
 30
0.0
 10
4006.726825944904
 20
4254.303492346422
 30
0.0
 10
4006.384722562283
 20
4254.417588455876
 30
0.0
 10
4006.384722562283
 20
4254.702651489843
 30
0.0
 10
4006.384722562283
 20
4255.158989691222
 30
0.0
 10
4006.726825944904
 20
4255.215891330572
 30
0.0
 10
4007.924349611601
 20
4255.215891330572
 30
0.0
 10
4013.455722216571
 20
4255.215891330572
 30
0.0
 10
4017.789555265919
 20
4259.264661822736
 30
0.0
 10
4017.789555265919
 20
4264.510878920868
 30
0.0
 10
4017.789555265919
 20
4266.392701825677
 30
0.0
 10
4017.618511285003
 20
4270.213295511077
 30
0.0
 10
4014.596205138502
 20
4273.292642082582
 30
0.0
 10
4011.573899311762
 20
4276.37191159336
 30
0.0
 10
4008.095409008983
 20
4276.143811847323
 30
0.0
 10
4006.783866293559
 20
4276.143811847323
 30
0.0
 10
4005.8144423729
 20
4276.143811847323
 30
0.0
 10
4004.845095512965
 20
4276.02980821074
 30
0.0
 10
4004.331855672236
 20
4275.801708464703
 30
0.0
 10
4003.989675228893
 20
4275.687627767394
 30
0.0
 10
4003.875656180162
 20
4275.288468623973
 30
0.0
 10
4003.875656180162
 20
4274.718265495315
 30
0.0
 10
4003.875656180162
 20
4274.718265495315
 30
0.0
 10
4003.875656180162
 20
4251.281278596443
 30
0.0
 10
4003.875656180162
 20
4251.281278596443
 30
0.0
 10
4003.875656180162
 20
4245.806946340127
 30
0.0
 10
4003.875656180162
 20
4241.302053416613
 30
0.0
 10
4004.160796274854
 20
4238.907006083222
 30
0.0
 10
4004.331855672236
 20
4237.253359985177
 30
0.0
 10
4004.674036115583
 20
4235.998873030552
 30
0.0
 10
4006.384722562283
 20
4235.770696223789
 30
0.0
 10
4007.183025436979
 20
4235.656615526479
 30
0.0
 10
4008.43758945233
 20
4235.542519417026
 30
0.0
 10
4008.950829293058
 20
4235.542519417026
 30
0.0
 10
4009.29293267568
 20
4235.542519417026
 30
0.0
 10
4009.407028785131
 20
4235.371552492512
 30
0.0
 10
4009.407028785131
 20
4235.200570155855
 30
0.0
 10
4009.407028785131
 20
4234.915353000437
 30
0.0
 10
4009.121888690441
 20
4234.74421654233
 30
0.0
 10
4008.494629800984
 20
4234.74421654233
 30
0.0
 10
4005.35831994155
 20
4234.74421654233
 30
0.0
 10
4001.765826002187
 20
4234.915353000437
 30
0.0
 10
4001.480685907496
 20
4234.915353000437
 30
0.0
 10
4001.309626510113
 20
4234.915353000437
 30
0.0
 10
3997.717046262739
 20
4234.74421654233
 30
0.0
 10
3996.00635365118
 20
4234.74421654233
 30
0.0
 10
3995.379033113142
 20
4234.74421654233
 30
0.0
 10
3995.093970079175
 20
4234.858312651784
 30
0.0
 10
3995.093970079175
 20
4235.200570155855
 30
0.0
 10
3995.093970079175
 20
4235.371552492512
 30
0.0
 10
3995.207989127904
 20
4235.542519417026
 30
0.0
 10
3995.55016957125
 20
4235.542519417026
 30
0.0
 10
3996.063332351255
 20
4235.542519417026
 30
0.0
 10
3996.74761617722
 20
4235.656615526479
 30
0.0
 10
3997.26085601795
 20
4235.770696223789
 30
0.0
 10
3998.401336253563
 20
4235.998873030552
 30
0.0
 10
3998.686476348254
 20
4237.253359985177
 30
0.0
 10
3998.914572703621
 20
4238.907006083222
 30
0.0
 10
3999.199713106554
 20
4241.302053416613
 30
0.0
 10
3999.199713106554
 20
4245.806946340127
 30
0.0
 10
3999.199713106554
 20
4251.281278596443
 30
0.0
 10
3999.199713106554
 20
4251.281278596443
 30
0.0
 10
3999.199713106554
 20
4261.317528712782
 30
0.0
 10
3999.199713106554
 20
4261.317528712782
 30
0.0
  0
HATCH
  5
2D5
330
2CE
100
AcDbEntity
  8
0
100
AcDbHatch
 10
0.0
 20
0.0
 30
0.0
210
0.0
220
0.0
230
1.0
  2
SOLID
 70
     1
 71
     0
 91
        1
 92
        1
 93
        1
 72
     4
 94
        3
 73
     0
 74
     0
 95
      101
 96
       97
 40
0.0
 40
0.0
 40
0.0
 40
0.0
 40
1.0
 40
1.0
 40
1.0
 40
2.0
 40
2.0
 40
2.0
 40
3.0
 40
3.0
 40
3.0
 40
4.0
 40
4.0
 40
4.0
 40
5.0
 40
5.0
 40
5.0
 40
6.0
 40
6.0
 40
6.0
 40
7.0
 40
7.0
 40
7.0
 40
8.0
 40
8.0
 40
8.0
 40
9.0
 40
9.0
 40
9.0
 40
10.0
 40
10.0
 40
10.0
 40
11.0
 40
11.0
 40
11.0
 40
12.0
 40
12.0
 40
12.0
 40
13.0
 40
13.0
 40
13.0
 40
14.0
 40
14.0
 40
14.0
 40
15.0
 40
15.0
 40
15.0
 40
16.0
 40
16.0
 40
16.0
 40
17.0
 40
17.0
 40
17.0
 40
18.0
 40
18.0
 40
18.0
 40
19.0
 40
19.0
 40
19.0
 40
20.0
 40
20.0
 40
20.0
 40
21.0
 40
21.0
 40
21.0
 40
22.0
 40
22.0
 40
22.0
 40
23.0
 40
23.0
 40
23.0
 40
24.0
 40
24.0
 40
24.0
 40
25.0
 40
25.0
 40
25.0
 40
26.0
 40
26.0
 40
26.0
 40
27.0
 40
27.0
 40
27.0
 40
28.0
 40
28.0
 40
28.0
 40
29.0
 40
29.0
 40
29.0
 40
30.0
 40
30.0
 40
30.0
 40
31.0
 40
31.0
 40
31.0
 40
32.0
 40
32.0
 40
32.0
 40
32.0
 10
3999.199713106554
 20
4261.317528712782
 10
3999.199713106554
 20
4270.213295511077
 10
3999.199713106554
 20
4271.809978321194
 10
3999.085626244387
 20
4273.634760877348
 10
3998.971540461072
 20
4275.573608718665
 10
3998.515347596219
 20
4276.486007702813
 10
3996.633612540637
 20
4276.885151434089
 10
3996.177413048562
 20
4276.999232131397
 10
3995.207989127904
 20
4277.056210831473
 10
3994.694749287176
 20
4277.056210831473
 10
3994.466649541137
 20
4277.056210831473
 10
3994.2385497951
 20
4277.170291528782
 10
3994.2385497951
 20
4277.398391274819
 10
3994.2385497951
 20
4277.740494657439
 10
3994.523689889792
 20
4277.854575354749
 10
3995.150933367104
 20
4277.854652415473
 10
3997.717046262739
 20
4277.854652415473
 10
4001.138490052004
 20
4277.683608430236
 10
4001.594689544079
 20
4277.683608430236
 10
4002.849253559428
 20
4277.683608430236
 10
4006.156622816245
 20
4277.854652415473
 10
4008.779769895675
 20
4277.854575354749
 10
4015.907747820795
 20
4277.854575354749
 10
4018.473854486745
 20
4275.459528021356
 10
4019.386238035701
 20
4274.604184798006
 10
4020.640802019357
 20
4273.40666113131
 10
4022.237407728416
 20
4270.840554400535
 10
4022.237407728416
 20
4267.818325238411
 10
4022.237407728416
 20
4259.720845902665
 10
4016.306891541987
 20
4254.246606119218
 10
4008.209489706292
 20
4254.246606119218
 10
4007.924349611601
 20
4254.246606119218
 10
4007.297106134287
 20
4254.246606119218
 10
4007.011966039596
 20
4254.303492346422
 10
4006.726825944904
 20
4254.303492346422
 10
4006.384722562283
 20
4254.417588455876
 10
4006.384722562283
 20
4254.702651489843
 10
4006.384722562283
 20
4255.158989691222
 10
4006.726825944904
 20
4255.215891330572
 10
4007.924349611601
 20
4255.215891330572
 10
4013.455722216571
 20
4255.215891330572
 10
4017.789555265919
 20
4259.264661822736
 10
4017.789555265919
 20
4264.510878920868
 10
4017.789555265919
 20
4266.392701825677
 10
4017.618511285003
 20
4270.213295511077
 10
4014.596205138502
 20
4273.292642082582
 10
4011.573899311762
 20
4276.37191159336
 10
4008.095409008983
 20
4276.143811847323
 10
4006.783866293559
 20
4276.143811847323
 10
4005.8144423729
 20
4276.143811847323
 10
4004.845095512965
 20
4276.02980821074
 10
4004.331855672236
 20
4275.801708464703
 10
4003.989675228893
 20
4275.687627767394
 10
4003.875656180162
 20
4275.288468623973
 10
4003.875656180162
 20
4274.718265495315
 10
4003.875656180162
 20
4274.718265495315
 10
4003.875656180162
 20
4251.281278596443
 10
4003.875656180162
 20
4251.281278596443
 10
4003.875656180162
 20
4245.806946340127
 10
4003.875656180162
 20
4241.302053416613
 10
4004.160796274854
 20
4238.907006083222
 10
4004.331855672236
 20
4237.253359985177
 10
4004.674036115583
 20
4235.998873030552
 10
4006.384722562283
 20
4235.770696223789
 10
4007.183025436979
 20
4235.656615526479
 10
4008.43758945233
 20
4235.542519417026
 10
4008.950829293058
 20
4235.542519417026
 10
4009.29293267568
 20
4235.542519417026
 10
4009.407028785131
 20
4235.371552492512
 10
4009.407028785131
 20
4235.200570155855
 10
4009.407028785131
 20
4234.915353000437
 10
4009.121888690441
 20
4234.74421654233
 10
4008.494629800984
 20
4234.74421654233
 10
4005.35831994155
 20
4234.74421654233
 10
4001.765826002187
 20
4234.915353000437
 10
4001.480685907496
 20
4234.915353000437
 10
4001.309626510113
 20
4234.915353000437
 10
3997.717046262739
 20
4234.74421654233
 10
3996.00635365118
 20
4234.74421654233
 10
3995.379033113142
 20
4234.74421654233
 10
3995.093970079175
 20
4234.858312651784
 10
3995.093970079175
 20
4235.200570155855
 10
3995.093970079175
 20
4235.371552492512
 10
3995.207989127904
 20
4235.542519417026
 10
3995.55016957125
 20
4235.542519417026
 10
3996.063332351255
 20
4235.542519417026
 10
3996.74761617722
 20
4235.656615526479
 10
3997.26085601795
 20
4235.770696223789
 10
3998.401336253563
 20
4235.998873030552
 10
3998.686476348254
 20
4237.253359985177
 10
3998.914572703621
 20
4238.907006083222
 10
3999.199713106554
 20
4241.302053416613
 10
3999.199713106554
 20
4245.806946340127
 10
3999.199713106554
 20
4251.281278596443
 10
3999.199713106554
 20
4251.281278596443
 10
3999.199713106554
 20
4261.317528712782
 10
3999.199713106554
 20
4261.317528712782
 97
        0
 97
        0
 75
     2
 76
     1
 98
        0
450
        0
451
        0
460
0.0
461
0.0
452
        1
462
0.0
453
        0
470

  0
SPLINE
  5
2D6
330
2CE
100
AcDbEntity
  8
0
370
     0
100
AcDbSpline
210
0.0
220
0.0
230
1.0
 70
     9
 71
     3
 72
   158
 73
   154
 74
     0
 42
0.000000001
 43
0.0000000001
 40
0.0
 40
0.0
 40
0.0
 40
0.0
 40
1.0
 40
1.0
 40
1.0
 40
2.0
 40
2.0
 40
2.0
 40
3.0
 40
3.0
 40
3.0
 40
4.0
 40
4.0
 40
4.0
 40
5.0
 40
5.0
 40
5.0
 40
6.0
 40
6.0
 40
6.0
 40
7.0
 40
7.0
 40
7.0
 40
8.0
 40
8.0
 40
8.0
 40
9.0
 40
9.0
 40
9.0
 40
10.0
 40
10.0
 40
10.0
 40
11.0
 40
11.0
 40
11.0
 40
12.0
 40
12.0
 40
12.0
 40
13.0
 40
13.0
 40
13.0
 40
14.0
 40
14.0
 40
14.0
 40
15.0
 40
15.0
 40
15.0
 40
16.0
 40
16.0
 40
16.0
 40
17.0
 40
17.0
 40
17.0
 40
18.0
 40
18.0
 40
18.0
 40
19.0
 40
19.0
 40
19.0
 40
20.0
 40
20.0
 40
20.0
 40
21.0
 40
21.0
 40
21.0
 40
22.0
 40
22.0
 40
22.0
 40
23.0
 40
23.0
 40
23.0
 40
24.0
 40
24.0
 40
24.0
 40
25.0
 40
25.0
 40
25.0
 40
26.0
 40
26.0
 40
26.0
 40
27.0
 40
27.0
 40
27.0
 40
28.0
 40
28.0
 40
28.0
 40
29.0
 40
29.0
 40
29.0
 40
30.0
 40
30.0
 40
30.0
 40
31.0
 40
31.0
 40
31.0
 40
32.0
 40
32.0
 40
32.0
 40
33.0
 40
33.0
 40
33.0
 40
34.0
 40
34.0
 40
34.0
 40
35.0
 40
35.0
 40
35.0
 40
36.0
 40
36.0
 40
36.0
 40
37.0
 40
37.0
 40
37.0
 40
38.0
 40
38.0
 40
38.0
 40
39.0
 40
39.0
 40
39.0
 40
40.0
 40
40.0
 40
40.0
 40
41.0
 40
41.0
 40
41.0
 40
42.0
 40
42.0
 40
42.0
 40
43.0
 40
43.0
 40
43.0
 40
44.0
 40
44.0
 40
44.0
 40
45.0
 40
45.0
 40
45.0
 40
46.0
 40
46.0
 40
46.0
 40
47.0
 40
47.0
 40
47.0
 40
48.0
 40
48.0
 40
48.0
 40
49.0
 40
49.0
 40
49.0
 40
50.0
 40
50.0
 40
50.0
 40
51.0
 40
51.0
 40
51.0
 40
51.0
 10
4035.999082123907
 20
4257.382915978651
 30
0.0
 10
4035.999082123907
 20
4264.910038064289
 30
0.0
 10
4035.999082123907
 20
4266.278621128368
 30
0.0
 10
4035.885062141265
 20
4267.818325238411
 30
0.0
 10
4035.770982377869
 20
4269.471971336455
 30
0.0
 10
4035.485841359352
 20
4270.270351271877
 30
0.0
 10
4033.832195303079
 20
4270.498435605769
 30
0.0
 10
4033.433036169743
 20
4270.555491366568
 30
0.0
 10
4032.577631319423
 20
4270.612531715221
 30
0.0
 10
4032.121431838873
 20
4270.612531715221
 30
0.0
 10
4031.950372445812
 20
4270.612531715221
 30
0.0
 10
4031.722272705535
 20
4270.840554400535
 30
0.0
 10
4031.722272705535
 20
4271.011675446498
 30
0.0
 10
4031.722272705535
 20
4271.296738480464
 30
0.0
 10
4031.950372445812
 20
4271.410834589918
 30
0.0
 10
4032.520652620788
 20
4271.410834589918
 30
0.0
 10
4034.801619199249
 20
4271.410834589918
 30
0.0
 10
4038.051948025301
 20
4271.296738480464
 30
0.0
 10
4038.33708811279
 20
4271.296738480464
 30
0.0
 10
4038.679191486767
 20
4271.296738480464
 30
0.0
 10
4049.171640830119
 20
4271.239775192536
 30
0.0
 10
4050.312201180073
 20
4271.296738480464
 30
0.0
 10
4051.281563427663
 20
4271.353778829119
 30
0.0
 10
4052.193946976619
 20
4271.524915287227
 30
0.0
 10
4052.593167758534
 20
4271.581878575156
 30
0.0
 10
4052.821190438087
 20
4271.638918923811
 30
0.0
 10
4053.049367239085
 20
4271.809978321194
 30
0.0
 10
4053.277389918636
 20
4271.809978321194
 30
0.0
 10
4053.448510960277
 20
4271.809978321194
 30
0.0
 10
4053.505551307489
 20
4271.581878575156
 30
0.0
 10
4053.505551307489
 20
4271.353778829119
 30
0.0
 10
4053.505551307489
 20
4271.011675446498
 30
0.0
 10
4053.220411220002
 20
4270.441395257114
 30
0.0
 10
4053.106330525575
 20
4269.072812193036
 30
0.0
 10
4053.049367239085
 20
4268.616628113107
 30
0.0
 10
4052.935271132514
 20
4266.449742174333
 30
0.0
 10
4052.821190438087
 20
4265.879461984948
 30
0.0
 10
4052.764227151596
 20
4265.65136223891
 30
0.0
 10
4052.593167758534
 20
4265.366222144218
 30
0.0
 10
4052.364990957538
 20
4265.366222144218
 30
0.0
 10
4052.079927930771
 20
4265.366222144218
 30
0.0
 10
4051.965847236345
 20
4265.59439895098
 30
0.0
 10
4051.965847236345
 20
4265.993558094402
 30
0.0
 10
4051.965847236345
 20
4266.335661477023
 30
0.0
 10
4051.908806889131
 20
4267.134041412443
 30
0.0
 10
4051.680785542523
 20
4267.704244541103
 30
0.0
 10
4051.338603774876
 20
4268.502609064376
 30
0.0
 10
4050.825363947113
 20
4268.844727859144
 30
0.0
 10
4048.088197888101
 20
4269.186908302489
 30
0.0
 10
4047.23285468636
 20
4269.300911939073
 30
0.0
 10
4041.416357545779
 20
4269.357952287727
 30
0.0
 10
4040.846154431526
 20
4269.357952287727
 30
0.0
 10
4040.61805469125
 20
4269.357952287727
 30
0.0
 10
4040.561014344038
 20
4269.186908302489
 30
0.0
 10
4040.561014344038
 20
4268.844727859144
 30
0.0
 10
4040.561014344038
 20
4268.844727859144
 30
0.0
 10
4040.561014344038
 20
4255.672229531952
 30
0.0
 10
4040.561014344038
 20
4255.672229531952
 30
0.0
 10
4040.561014344038
 20
4255.329972027879
 30
0.0
 10
4040.561014344038
 20
4255.158989691222
 30
0.0
 10
4040.846154431526
 20
4255.158989691222
 30
0.0
 10
4041.473397892993
 20
4255.158989691222
 30
0.0
 10
4048.088197888101
 20
4255.158989691222
 30
0.0
 10
4049.228681177333
 20
4255.273085800676
 30
0.0
 10
4050.426204813777
 20
4255.387012376536
 30
0.0
 10
4051.167544381815
 20
4255.44405272519
 30
0.0
 10
4051.680785542523
 20
4255.957292565919
 30
0.0
 10
4052.022887583557
 20
4256.29939594854
 30
0.0
 10
4052.250987323833
 20
4256.584536043231
 30
0.0
 10
4052.422046716894
 20
4256.584536043231
 30
0.0
 10
4052.593167758534
 20
4256.584536043231
 30
0.0
 10
4052.707186804383
 20
4256.470532406647
 30
0.0
 10
4052.707186804383
 20
4256.185392311956
 30
0.0
 10
4052.707186804383
 20
4255.900252217264
 30
0.0
 10
4052.422046716894
 20
4255.101949342567
 30
0.0
 10
4052.308027671045
 20
4253.505204883873
 30
0.0
 10
4052.193946976619
 20
4252.535919672517
 30
0.0
 10
4052.079927930771
 20
4250.711137116364
 30
0.0
 10
4052.079927930771
 20
4250.368879612294
 30
0.0
 10
4052.079927930771
 20
4249.969735881018
 30
0.0
 10
4051.965847236345
 20
4249.45649604029
 30
0.0
 10
4051.623743862365
 20
4249.45649604029
 30
0.0
 10
4051.395644122091
 20
4249.45649604029
 30
0.0
 10
4051.281563427663
 20
4249.627632498397
 30
0.0
 10
4051.281563427663
 20
4249.912695532364
 30
0.0
 10
4051.281563427663
 20
4250.368879612294
 30
0.0
 10
4051.281563427663
 20
4250.882119453023
 30
0.0
 10
4051.053463687389
 20
4251.50943999106
 30
0.0
 10
4050.882404294326
 20
4252.193662168447
 30
0.0
 10
4050.426204813777
 20
4252.763942357831
 30
0.0
 10
4048.487434082161
 20
4252.991965043142
 30
0.0
 10
4047.118851052657
 20
4253.163086089105
 30
0.0
 10
4041.758537980483
 20
4253.220126437759
 30
0.0
 10
4040.903194778739
 20
4253.220126437759
 30
0.0
 10
4040.61805469125
 20
4253.220126437759
 30
0.0
 10
4040.561014344038
 20
4253.049005391797
 30
0.0
 10
4040.561014344038
 20
4252.87786893369
 30
0.0
 10
4040.561014344038
 20
4252.87786893369
 30
0.0
 10
4040.561014344038
 20
4248.829175502252
 30
0.0
 10
4040.561014344038
 20
4248.829175502252
 30
0.0
 10
4040.561014344038
 20
4247.175529404206
 30
0.0
 10
4040.503973996823
 20
4241.530076101927
 30
0.0
 10
4040.561014344038
 20
4240.560806302717
 30
0.0
 10
4040.675095038465
 20
4237.310400333831
 30
0.0
 10
4041.58747858742
 20
4236.683079795793
 30
0.0
 10
4046.548570877678
 20
4236.683079795793
 30
0.0
 10
4047.860098147827
 20
4236.683079795793
 30
0.0
 10
4050.255162129789
 20
4236.683079795793
 30
0.0
 10
4051.566688103007
 20
4237.196319636522
 30
0.0
 10
4052.8782307853
 20
4237.766599825905
 30
0.0
 10
4053.562530006124
 20
4238.621943049254
 30
0.0
 10
4053.847733129877
 20
4240.560806302717
 30
0.0
 10
4053.961750788038
 20
4241.13093237065
 30
0.0
 10
4054.075832875914
 20
4241.302053416613
 30
0.0
 10
4054.360894509232
 20
4241.302053416613
 30
0.0
 10
4054.646034596721
 20
4241.302053416613
 30
0.0
 10
4054.703074943933
 20
4240.902909685339
 30
0.0
 10
4054.703013295354
 20
4240.560806302717
 30
0.0
 10
4054.703013295354
 20
4240.218548798647
 30
0.0
 10
4054.303854162019
 20
4236.911256602556
 30
0.0
 10
4054.018714074531
 20
4235.884776921098
 30
0.0
 10
4053.676610700551
 20
4234.630135845022
 30
0.0
 10
4053.163370872788
 20
4234.630135845022
 30
0.0
 10
4051.224586050449
 20
4234.630135845022
 30
0.0
 10
4047.460954426635
 20
4234.630135845022
 30
0.0
 10
4044.552744386707
 20
4234.74421654233
 30
0.0
 10
4042.499862136375
 20
4234.801272303129
 30
0.0
 10
4040.389954950976
 20
4234.915353000437
 30
0.0
 10
4039.078412268684
 20
4234.915353000437
 30
0.0
 10
4038.33708811279
 20
4234.915353000437
 30
0.0
 10
4038.222992006216
 20
4234.915353000437
 30
0.0
 10
4037.253645170772
 20
4234.915353000437
 30
0.0
 10
4036.170202228755
 20
4234.858312651784
 30
0.0
 10
4035.200778332586
 20
4234.801272303129
 30
0.0
 10
4034.060295043356
 20
4234.74421654233
 30
0.0
 10
4033.261915128103
 20
4234.74421654233
 30
0.0
 10
4032.748675300338
 20
4234.74421654233
 30
0.0
 10
4032.463612273573
 20
4234.858312651784
 30
0.0
 10
4032.463612273573
 20
4235.14337568575
 30
0.0
 10
4032.463612273573
 20
4235.314496731714
 30
0.0
 10
4032.577631319423
 20
4235.542519417026
 30
0.0
 10
4032.862771406911
 20
4235.542519417026
 30
0.0
 10
4033.318955475317
 20
4235.542519417026
 30
0.0
 10
4033.946198936784
 20
4235.713655875134
 30
0.0
 10
4034.402398417332
 20
4235.770696223789
 30
0.0
 10
4035.371822313503
 20
4235.94181726975
 30
0.0
 10
4035.485841359352
 20
4236.911256602556
 30
0.0
 10
4035.71401816035
 20
4238.336880015288
 30
0.0
 10
4035.999082123907
 20
4240.332629495955
 30
0.0
 10
4035.999082123907
 20
4244.153300242081
 30
0.0
 10
4035.999082123907
 20
4248.829175502252
 30
0.0
 10
4035.999082123907
 20
4248.829175502252
 30
0.0
 10
4035.999082123907
 20
4257.382915978651
 30
0.0
 10
4035.999082123907
 20
4257.382915978651
 30
0.0
  0
HATCH
  5
2D7
330
2CE
100
AcDbEntity
  8
0
100
AcDbHatch
 10
0.0
 20
0.0
 30
0.0
210
0.0
220
0.0
230
1.0
  2
SOLID
 70
     1
 71
     0
 91
        1
 92
        1
 93
        1
 72
     4
 94
        3
 73
     0
 74
     0
 95
      158
 96
      154
 40
0.0
 40
0.0
 40
0.0
 40
0.0
 40
1.0
 40
1.0
 40
1.0
 40
2.0
 40
2.0
 40
2.0
 40
3.0
 40
3.0
 40
3.0
 40
4.0
 40
4.0
 40
4.0
 40
5.0
 40
5.0
 40
5.0
 40
6.0
 40
6.0
 40
6.0
 40
7.0
 40
7.0
 40
7.0
 40
8.0
 40
8.0
 40
8.0
 40
9.0
 40
9.0
 40
9.0
 40
10.0
 40
10.0
 40
10.0
 40
11.0
 40
11.0
 40
11.0
 40
12.0
 40
12.0
 40
12.0
 40
13.0
 40
13.0
 40
13.0
 40
14.0
 40
14.0
 40
14.0
 40
15.0
 40
15.0
 40
15.0
 40
16.0
 40
16.0
 40
16.0
 40
17.0
 40
17.0
 40
17.0
 40
18.0
 40
18.0
 40
18.0
 40
19.0
 40
19.0
 40
19.0
 40
20.0
 40
20.0
 40
20.0
 40
21.0
 40
21.0
 40
21.0
 40
22.0
 40
22.0
 40
22.0
 40
23.0
 40
23.0
 40
23.0
 40
24.0
 40
24.0
 40
24.0
 40
25.0
 40
25.0
 40
25.0
 40
26.0
 40
26.0
 40
26.0
 40
27.0
 40
27.0
 40
27.0
 40
28.0
 40
28.0
 40
28.0
 40
29.0
 40
29.0
 40
29.0
 40
30.0
 40
30.0
 40
30.0
 40
31.0
 40
31.0
 40
31.0
 40
32.0
 40
32.0
 40
32.0
 40
33.0
 40
33.0
 40
33.0
 40
34.0
 40
34.0
 40
34.0
 40
35.0
 40
35.0
 40
35.0
 40
36.0
 40
36.0
 40
36.0
 40
37.0
 40
37.0
 40
37.0
 40
38.0
 40
38.0
 40
38.0
 40
39.0
 40
39.0
 40
39.0
 40
40.0
 40
40.0
 40
40.0
 40
41.0
 40
41.0
 40
41.0
 40
42.0
 40
42.0
 40
42.0
 40
43.0
 40
43.0
 40
43.0
 40
44.0
 40
44.0
 40
44.0
 40
45.0
 40
45.0
 40
45.0
 40
46.0
 40
46.0
 40
46.0
 40
47.0
 40
47.0
 40
47.0
 40
48.0
 40
48.0
 40
48.0
 40
49.0
 40
49.0
 40
49.0
 40
50.0
 40
50.0
 40
50.0
 40
51.0
 40
51.0
 40
51.0
 40
51.0
 10
4035.999082123907
 20
4257.382915978651
 10
4035.999082123907
 20
4264.910038064289
 10
4035.999082123907
 20
4266.278621128368
 10
4035.885062141265
 20
4267.818325238411
 10
4035.770982377869
 20
4269.471971336455
 10
4035.485841359352
 20
4270.270351271877
 10
4033.832195303079
 20
4270.498435605769
 10
4033.433036169743
 20
4270.555491366568
 10
4032.577631319423
 20
4270.612531715221
 10
4032.121431838873
 20
4270.612531715221
 10
4031.950372445812
 20
4270.612531715221
 10
4031.722272705535
 20
4270.840554400535
 10
4031.722272705535
 20
4271.011675446498
 10
4031.722272705535
 20
4271.296738480464
 10
4031.950372445812
 20
4271.410834589918
 10
4032.520652620788
 20
4271.410834589918
 10
4034.801619199249
 20
4271.410834589918
 10
4038.051948025301
 20
4271.296738480464
 10
4038.33708811279
 20
4271.296738480464
 10
4038.679191486767
 20
4271.296738480464
 10
4049.171640830119
 20
4271.239775192536
 10
4050.312201180073
 20
4271.296738480464
 10
4051.281563427663
 20
4271.353778829119
 10
4052.193946976619
 20
4271.524915287227
 10
4052.593167758534
 20
4271.581878575156
 10
4052.821190438087
 20
4271.638918923811
 10
4053.049367239085
 20
4271.809978321194
 10
4053.277389918636
 20
4271.809978321194
 10
4053.448510960277
 20
4271.809978321194
 10
4053.505551307489
 20
4271.581878575156
 10
4053.505551307489
 20
4271.353778829119
 10
4053.505551307489
 20
4271.011675446498
 10
4053.220411220002
 20
4270.441395257114
 10
4053.106330525575
 20
4269.072812193036
 10
4053.049367239085
 20
4268.616628113107
 10
4052.935271132514
 20
4266.449742174333
 10
4052.821190438087
 20
4265.879461984948
 10
4052.764227151596
 20
4265.65136223891
 10
4052.593167758534
 20
4265.366222144218
 10
4052.364990957538
 20
4265.366222144218
 10
4052.079927930771
 20
4265.366222144218
 10
4051.965847236345
 20
4265.59439895098
 10
4051.965847236345
 20
4265.993558094402
 10
4051.965847236345
 20
4266.335661477023
 10
4051.908806889131
 20
4267.134041412443
 10
4051.680785542523
 20
4267.704244541103
 10
4051.338603774876
 20
4268.502609064376
 10
4050.825363947113
 20
4268.844727859144
 10
4048.088197888101
 20
4269.186908302489
 10
4047.23285468636
 20
4269.300911939073
 10
4041.416357545779
 20
4269.357952287727
 10
4040.846154431526
 20
4269.357952287727
 10
4040.61805469125
 20
4269.357952287727
 10
4040.561014344038
 20
4269.186908302489
 10
4040.561014344038
 20
4268.844727859144
 10
4040.561014344038
 20
4268.844727859144
 10
4040.561014344038
 20
4255.672229531952
 10
4040.561014344038
 20
4255.672229531952
 10
4040.561014344038
 20
4255.329972027879
 10
4040.561014344038
 20
4255.158989691222
 10
4040.846154431526
 20
4255.158989691222
 10
4041.473397892993
 20
4255.158989691222
 10
4048.088197888101
 20
4255.158989691222
 10
4049.228681177333
 20
4255.273085800676
 10
4050.426204813777
 20
4255.387012376536
 10
4051.167544381815
 20
4255.44405272519
 10
4051.680785542523
 20
4255.957292565919
 10
4052.022887583557
 20
4256.29939594854
 10
4052.250987323833
 20
4256.584536043231
 10
4052.422046716894
 20
4256.584536043231
 10
4052.593167758534
 20
4256.584536043231
 10
4052.707186804383
 20
4256.470532406647
 10
4052.707186804383
 20
4256.185392311956
 10
4052.707186804383
 20
4255.900252217264
 10
4052.422046716894
 20
4255.101949342567
 10
4052.308027671045
 20
4253.505204883873
 10
4052.193946976619
 20
4252.535919672517
 10
4052.079927930771
 20
4250.711137116364
 10
4052.079927930771
 20
4250.368879612294
 10
4052.079927930771
 20
4249.969735881018
 10
4051.965847236345
 20
4249.45649604029
 10
4051.623743862365
 20
4249.45649604029
 10
4051.395644122091
 20
4249.45649604029
 10
4051.281563427663
 20
4249.627632498397
 10
4051.281563427663
 20
4249.912695532364
 10
4051.281563427663
 20
4250.368879612294
 10
4051.281563427663
 20
4250.882119453023
 10
4051.053463687389
 20
4251.50943999106
 10
4050.882404294326
 20
4252.193662168447
 10
4050.426204813777
 20
4252.763942357831
 10
4048.487434082161
 20
4252.991965043142
 10
4047.118851052657
 20
4253.163086089105
 10
4041.758537980483
 20
4253.220126437759
 10
4040.903194778739
 20
4253.220126437759
 10
4040.61805469125
 20
4253.220126437759
 10
4040.561014344038
 20
4253.049005391797
 10
4040.561014344038
 20
4252.87786893369
 10
4040.561014344038
 20
4252.87786893369
 10
4040.561014344038
 20
4248.829175502252
 10
4040.561014344038
 20
4248.829175502252
 10
4040.561014344038
 20
4247.175529404206
 10
4040.503973996823
 20
4241.530076101927
 10
4040.561014344038
 20
4240.560806302717
 10
4040.675095038465
 20
4237.310400333831
 10
4041.58747858742
 20
4236.683079795793
 10
4046.548570877678
 20
4236.683079795793
 10
4047.860098147827
 20
4236.683079795793
 10
4050.255162129789
 20
4236.683079795793
 10
4051.566688103007
 20
4237.196319636522
 10
4052.8782307853
 20
4237.766599825905
 10
4053.562530006124
 20
4238.621943049254
 10
4053.847733129877
 20
4240.560806302717
 10
4053.961750788038
 20
4241.13093237065
 10
4054.075832875914
 20
4241.302053416613
 10
4054.360894509232
 20
4241.302053416613
 10
4054.646034596721
 20
4241.302053416613
 10
4054.703074943933
 20
4240.902909685339
 10
4054.703013295354
 20
4240.560806302717
 10
4054.703013295354
 20
4240.218548798647
 10
4054.303854162019
 20
4236.911256602556
 10
4054.018714074531
 20
4235.884776921098
 10
4053.676610700551
 20
4234.630135845022
 10
4053.163370872788
 20
4234.630135845022
 10
4051.224586050449
 20
4234.630135845022
 10
4047.460954426635
 20
4234.630135845022
 10
4044.552744386707
 20
4234.74421654233
 10
4042.499862136375
 20
4234.801272303129
 10
4040.389954950976
 20
4234.915353000437
 10
4039.078412268684
 20
4234.915353000437
 10
4038.33708811279
 20
4234.915353000437
 10
4038.222992006216
 20
4234.915353000437
 10
4037.253645170772
 20
4234.915353000437
 10
4036.170202228755
 20
4234.858312651784
 10
4035.200778332586
 20
4234.801272303129
 10
4034.060295043356
 20
4234.74421654233
 10
4033.261915128103
 20
4234.74421654233
 10
4032.748675300338
 20
4234.74421654233
 10
4032.463612273573
 20
4234.858312651784
 10
4032.463612273573
 20
4235.14337568575
 10
4032.463612273573
 20
4235.314496731714
 10
4032.577631319423
 20
4235.542519417026
 10
4032.862771406911
 20
4235.542519417026
 10
4033.318955475317
 20
4235.542519417026
 10
4033.946198936784
 20
4235.713655875134
 10
4034.402398417332
 20
4235.770696223789
 10
4035.371822313503
 20
4235.94181726975
 10
4035.485841359352
 20
4236.911256602556
 10
4035.71401816035
 20
4238.336880015288
 10
4035.999082123907
 20
4240.332629495955
 10
4035.999082123907
 20
4244.153300242081
 10
4035.999082123907
 20
4248.829175502252
 10
4035.999082123907
 20
4248.829175502252
 10
4035.999082123907
 20
4257.382915978651
 10
4035.999082123907
 20
4257.382915978651
 97
        0
 97
        0
 75
     2
 76
     1
 98
        0
450
        0
451
        0
460
0.0
461
0.0
452
        1
462
0.0
453
        0
470

  0
SPLINE
  5
2D8
330
2CE
100
AcDbEntity
  8
0
370
     0
100
AcDbSpline
210
0.0
220
0.0
230
1.0
 70
     9
 71
     3
 72
    89
 73
    85
 74
     0
 42
0.000000001
 43
0.0000000001
 40
0.0
 40
0.0
 40
0.0
 40
0.0
 40
1.0
 40
1.0
 40
1.0
 40
2.0
 40
2.0
 40
2.0
 40
3.0
 40
3.0
 40
3.0
 40
4.0
 40
4.0
 40
4.0
 40
5.0
 40
5.0
 40
5.0
 40
6.0
 40
6.0
 40
6.0
 40
7.0
 40
7.0
 40
7.0
 40
8.0
 40
8.0
 40
8.0
 40
9.0
 40
9.0
 40
9.0
 40
10.0
 40
10.0
 40
10.0
 40
11.0
 40
11.0
 40
11.0
 40
12.0
 40
12.0
 40
12.0
 40
13.0
 40
13.0
 40
13.0
 40
14.0
 40
14.0
 40
14.0
 40
15.0
 40
15.0
 40
15.0
 40
16.0
 40
16.0
 40
16.0
 40
17.0
 40
17.0
 40
17.0
 40
18.0
 40
18.0
 40
18.0
 40
19.0
 40
19.0
 40
19.0
 40
20.0
 40
20.0
 40
20.0
 40
21.0
 40
21.0
 40
21.0
 40
22.0
 40
22.0
 40
22.0
 40
23.0
 40
23.0
 40
23.0
 40
24.0
 40
24.0
 40
24.0
 40
25.0
 40
25.0
 40
25.0
 40
26.0
 40
26.0
 40
26.0
 40
27.0
 40
27.0
 40
27.0
 40
28.0
 40
28.0
 40
28.0
 40
28.0
 10
4079.222086275451
 20
4270.441395257114
 30
0.0
 10
4079.84926808834
 20
4272.038078067232
 30
0.0
 10
4080.077429477193
 20
4272.323218161923
 30
0.0
 10
4080.419686972617
 20
4272.323218161923
 30
0.0
 10
4080.932772678934
 20
4272.323218161923
 30
0.0
 10
4081.10390913272
 20
4271.638918923811
 30
0.0
 10
4081.617148960484
 20
4270.555491366568
 30
0.0
 10
4082.529532509439
 20
4268.502609064376
 30
0.0
 10
4090.569878820543
 20
4248.487072119629
 30
0.0
 10
4093.649148253535
 20
4241.13093237065
 30
0.0
 10
4095.473933202844
 20
4236.797175905247
 30
0.0
 10
4096.842652502398
 20
4236.169839955064
 30
0.0
 10
4097.926018383692
 20
4235.827736572443
 30
0.0
 10
4098.667435012454
 20
4235.599713887131
 30
0.0
 10
4099.408543398323
 20
4235.542519417026
 30
0.0
 10
4099.921767813942
 20
4235.542519417026
 30
0.0
 10
4100.206984962154
 20
4235.542519417026
 30
0.0
 10
4100.549088336133
 20
4235.428592841168
 30
0.0
 10
4100.549088336133
 20
4235.14337568575
 30
0.0
 10
4100.549088336133
 20
4234.858312651784
 30
0.0
 10
4099.978962282601
 20
4234.74421654233
 30
0.0
 10
4099.408543398323
 20
4234.74421654233
 30
0.0
 10
4098.667435012454
 20
4234.74421654233
 30
0.0
 10
4094.960690935827
 20
4234.74421654233
 30
0.0
 10
4091.4822623695
 20
4234.858312651784
 30
0.0
 10
4090.512838473331
 20
4234.915353000437
 30
0.0
 10
4089.714535618802
 20
4234.915353000437
 30
0.0
 10
4089.714535618802
 20
4235.200570155855
 30
0.0
 10
4089.714535618802
 20
4235.428592841168
 30
0.0
 10
4089.828631725374
 20
4235.428592841168
 30
0.0
 10
4090.056638992781
 20
4235.542519417026
 30
0.0
 10
4090.341856140993
 20
4235.656615526479
 30
0.0
 10
4090.855095968755
 20
4236.055759257754
 30
0.0
 10
4090.512838473331
 20
4236.854216253902
 30
0.0
 10
4090.512838473331
 20
4236.854216253902
 30
0.0
 10
4086.007947863744
 20
4247.973986400351
 30
0.0
 10
4086.007947863744
 20
4247.973986400351
 30
0.0
 10
4085.894019090639
 20
4248.202009085664
 30
0.0
 10
4085.83682462198
 20
4248.259049434318
 30
0.0
 10
4085.551761595216
 20
4248.259049434318
 30
0.0
 10
4085.551761595216
 20
4248.259049434318
 30
0.0
 10
4073.975792249124
 20
4248.259049434318
 30
0.0
 10
4073.975792249124
 20
4248.259049434318
 30
0.0
 10
4073.747769569573
 20
4248.259049434318
 30
0.0
 10
4073.576633115788
 20
4248.144968737009
 30
0.0
 10
4073.462552421361
 20
4247.859890290897
 30
0.0
 10
4073.462552421361
 20
4247.859890290897
 30
0.0
 10
4070.611305667923
 20
4240.104452689193
 30
0.0
 10
4070.611305667923
 20
4240.104452689193
 30
0.0
 10
4070.155260308817
 20
4238.907006083222
 30
0.0
 10
4069.8701990745
 20
4237.709559477251
 30
0.0
 10
4069.8701990745
 20
4236.854216253902
 30
0.0
 10
4069.8701990745
 20
4235.884776921098
 30
0.0
 10
4070.72538636235
 20
4235.542519417026
 30
0.0
 10
4071.580883685538
 20
4235.542519417026
 30
0.0
 10
4071.580883685538
 20
4235.542519417026
 30
0.0
 10
4072.036929044641
 20
4235.542519417026
 30
0.0
 10
4072.036929044641
 20
4235.542519417026
 30
0.0
 10
4072.436072765833
 20
4235.542519417026
 30
0.0
 10
4072.550168872406
 20
4235.371552492512
 30
0.0
 10
4072.550168872406
 20
4235.14337568575
 30
0.0
 10
4072.550168872406
 20
4234.858312651784
 30
0.0
 10
4072.265105845639
 20
4234.74421654233
 30
0.0
 10
4071.808906365089
 20
4234.74421654233
 30
0.0
 10
4070.611459789368
 20
4234.74421654233
 30
0.0
 10
4067.874293730358
 20
4234.915353000437
 30
0.0
 10
4067.304013555379
 20
4234.915353000437
 30
0.0
 10
4066.790773727617
 20
4234.915353000437
 30
0.0
 10
4064.281784469604
 20
4234.74421654233
 30
0.0
 10
4062.228840570694
 20
4234.74421654233
 30
0.0
 10
4061.601520048504
 20
4234.74421654233
 30
0.0
 10
4061.259570795971
 20
4234.858312651784
 30
0.0
 10
4061.259570795971
 20
4235.14337568575
 30
0.0
 10
4061.259570795971
 20
4235.371552492512
 30
0.0
 10
4061.487439354078
 20
4235.542519417026
 30
0.0
 10
4061.715600742931
 20
4235.542519417026
 30
0.0
 10
4062.0578736505
 20
4235.542519417026
 30
0.0
 10
4062.799120745672
 20
4235.599713887131
 30
0.0
 10
4063.198281502908
 20
4235.656615526479
 30
0.0
 10
4065.47924645747
 20
4235.94181726975
 30
0.0
 10
4066.448670353639
 20
4237.652519128596
 30
0.0
 10
4067.418094249807
 20
4240.104452689193
 30
0.0
 10
4067.418094249807
 20
4240.104452689193
 30
0.0
 10
4079.222086275451
 20
4270.441395257114
 30
0.0
 10
4079.222086275451
 20
4270.441395257114
 30
0.0
  0
SPLINE
  5
2D9
330
2CE
100
AcDbEntity
  8
0
370
     0
100
AcDbSpline
210
0.0
220
0.0
230
1.0
 70
     9
 71
     3
 72
    23
 73
    19
 74
     0
 42
0.000000001
 43
0.0000000001
 40
0.0
 40
0.0
 40
0.0
 40
0.0
 40
1.0
 40
1.0
 40
1.0
 40
2.0
 40
2.0
 40
2.0
 40
3.0
 40
3.0
 40
3.0
 40
4.0
 40
4.0
 40
4.0
 40
5.0
 40
5.0
 40
5.0
 40
6.0
 40
6.0
 40
6.0
 40
6.0
 10
4084.810344966455
 20
4250.254798914984
 30
0.0
 10
4085.038523943085
 20
4250.254798914984
 30
0.0
 10
4085.038523943085
 20
4250.368879612294
 30
0.0
 10
4084.981620129541
 20
4250.597056419056
 30
0.0
 10
4084.981620129541
 20
4250.597056419056
 30
0.0
 10
4080.020389129979
 20
4263.883635443556
 30
0.0
 10
4080.020389129979
 20
4263.883635443556
 30
0.0
 10
4079.735171981768
 20
4264.624975030322
 30
0.0
 10
4079.450108955003
 20
4264.624975030322
 30
0.0
 10
4079.165045928237
 20
4263.883635443556
 30
0.0
 10
4079.165045928237
 20
4263.883635443556
 30
0.0
 10
4074.489032076888
 20
4250.597056419056
 30
0.0
 10
4074.489032076888
 20
4250.597056419056
 30
0.0
 10
4074.432130438975
 20
4250.368879612294
 30
0.0
 10
4074.489032076888
 20
4250.254798914984
 30
0.0
 10
4074.660153118528
 20
4250.254798914984
 30
0.0
 10
4074.660153118528
 20
4250.254798914984
 30
0.0
 10
4084.810344966455
 20
4250.254798914984
 30
0.0
 10
4084.810344966455
 20
4250.254798914984
 30
0.0
  0
HATCH
  5
2DA
330
2CE
100
AcDbEntity
  8
0
100
AcDbHatch
 10
0.0
 20
0.0
 30
0.0
210
0.0
220
0.0
230
1.0
  2
SOLID
 70
     1
 71
     0
 91
        2
 92
        1
 93
        1
 72
     4
 94
        3
 73
     0
 74
     0
 95
       89
 96
       85
 40
0.0
 40
0.0
 40
0.0
 40
0.0
 40
1.0
 40
1.0
 40
1.0
 40
2.0
 40
2.0
 40
2.0
 40
3.0
 40
3.0
 40
3.0
 40
4.0
 40
4.0
 40
4.0
 40
5.0
 40
5.0
 40
5.0
 40
6.0
 40
6.0
 40
6.0
 40
7.0
 40
7.0
 40
7.0
 40
8.0
 40
8.0
 40
8.0
 40
9.0
 40
9.0
 40
9.0
 40
10.0
 40
10.0
 40
10.0
 40
11.0
 40
11.0
 40
11.0
 40
12.0
 40
12.0
 40
12.0
 40
13.0
 40
13.0
 40
13.0
 40
14.0
 40
14.0
 40
14.0
 40
15.0
 40
15.0
 40
15.0
 40
16.0
 40
16.0
 40
16.0
 40
17.0
 40
17.0
 40
17.0
 40
18.0
 40
18.0
 40
18.0
 40
19.0
 40
19.0
 40
19.0
 40
20.0
 40
20.0
 40
20.0
 40
21.0
 40
21.0
 40
21.0
 40
22.0
 40
22.0
 40
22.0
 40
23.0
 40
23.0
 40
23.0
 40
24.0
 40
24.0
 40
24.0
 40
25.0
 40
25.0
 40
25.0
 40
26.0
 40
26.0
 40
26.0
 40
27.0
 40
27.0
 40
27.0
 40
28.0
 40
28.0
 40
28.0
 40
28.0
 10
4079.222086275451
 20
4270.441395257114
 10
4079.84926808834
 20
4272.038078067232
 10
4080.077429477193
 20
4272.323218161923
 10
4080.419686972617
 20
4272.323218161923
 10
4080.932772678934
 20
4272.323218161923
 10
4081.10390913272
 20
4271.638918923811
 10
4081.617148960484
 20
4270.555491366568
 10
4082.529532509439
 20
4268.502609064376
 10
4090.569878820543
 20
4248.487072119629
 10
4093.649148253535
 20
4241.13093237065
 10
4095.473933202844
 20
4236.797175905247
 10
4096.842652502398
 20
4236.169839955064
 10
4097.926018383692
 20
4235.827736572443
 10
4098.667435012454
 20
4235.599713887131
 10
4099.408543398323
 20
4235.542519417026
 10
4099.921767813942
 20
4235.542519417026
 10
4100.206984962154
 20
4235.542519417026
 10
4100.549088336133
 20
4235.428592841168
 10
4100.549088336133
 20
4235.14337568575
 10
4100.549088336133
 20
4234.858312651784
 10
4099.978962282601
 20
4234.74421654233
 10
4099.408543398323
 20
4234.74421654233
 10
4098.667435012454
 20
4234.74421654233
 10
4094.960690935827
 20
4234.74421654233
 10
4091.4822623695
 20
4234.858312651784
 10
4090.512838473331
 20
4234.915353000437
 10
4089.714535618802
 20
4234.915353000437
 10
4089.714535618802
 20
4235.200570155855
 10
4089.714535618802
 20
4235.428592841168
 10
4089.828631725374
 20
4235.428592841168
 10
4090.056638992781
 20
4235.542519417026
 10
4090.341856140993
 20
4235.656615526479
 10
4090.855095968755
 20
4236.055759257754
 10
4090.512838473331
 20
4236.854216253902
 10
4090.512838473331
 20
4236.854216253902
 10
4086.007947863744
 20
4247.973986400351
 10
4086.007947863744
 20
4247.973986400351
 10
4085.894019090639
 20
4248.202009085664
 10
4085.83682462198
 20
4248.259049434318
 10
4085.551761595216
 20
4248.259049434318
 10
4085.551761595216
 20
4248.259049434318
 10
4073.975792249124
 20
4248.259049434318
 10
4073.975792249124
 20
4248.259049434318
 10
4073.747769569573
 20
4248.259049434318
 10
4073.576633115788
 20
4248.144968737009
 10
4073.462552421361
 20
4247.859890290897
 10
4073.462552421361
 20
4247.859890290897
 10
4070.611305667923
 20
4240.104452689193
 10
4070.611305667923
 20
4240.104452689193
 10
4070.155260308817
 20
4238.907006083222
 10
4069.8701990745
 20
4237.709559477251
 10
4069.8701990745
 20
4236.854216253902
 10
4069.8701990745
 20
4235.884776921098
 10
4070.72538636235
 20
4235.542519417026
 10
4071.580883685538
 20
4235.542519417026
 10
4071.580883685538
 20
4235.542519417026
 10
4072.036929044641
 20
4235.542519417026
 10
4072.036929044641
 20
4235.542519417026
 10
4072.436072765833
 20
4235.542519417026
 10
4072.550168872406
 20
4235.371552492512
 10
4072.550168872406
 20
4235.14337568575
 10
4072.550168872406
 20
4234.858312651784
 10
4072.265105845639
 20
4234.74421654233
 10
4071.808906365089
 20
4234.74421654233
 10
4070.611459789368
 20
4234.74421654233
 10
4067.874293730358
 20
4234.915353000437
 10
4067.304013555379
 20
4234.915353000437
 10
4066.790773727617
 20
4234.915353000437
 10
4064.281784469604
 20
4234.74421654233
 10
4062.228840570694
 20
4234.74421654233
 10
4061.601520048504
 20
4234.74421654233
 10
4061.259570795971
 20
4234.858312651784
 10
4061.259570795971
 20
4235.14337568575
 10
4061.259570795971
 20
4235.371552492512
 10
4061.487439354078
 20
4235.542519417026
 10
4061.715600742931
 20
4235.542519417026
 10
4062.0578736505
 20
4235.542519417026
 10
4062.799120745672
 20
4235.599713887131
 10
4063.198281502908
 20
4235.656615526479
 10
4065.47924645747
 20
4235.94181726975
 10
4066.448670353639
 20
4237.652519128596
 10
4067.418094249807
 20
4240.104452689193
 10
4067.418094249807
 20
4240.104452689193
 10
4079.222086275451
 20
4270.441395257114
 10
4079.222086275451
 20
4270.441395257114
 97
        0
 97
        0
 92
        1
 93
        1
 72
     4
 94
        3
 73
     0
 74
     0
 95
       23
 96
       19
 40
0.0
 40
0.0
 40
0.0
 40
0.0
 40
1.0
 40
1.0
 40
1.0
 40
2.0
 40
2.0
 40
2.0
 40
3.0
 40
3.0
 40
3.0
 40
4.0
 40
4.0
 40
4.0
 40
5.0
 40
5.0
 40
5.0
 40
6.0
 40
6.0
 40
6.0
 40
6.0
 10
4084.810344966455
 20
4250.254798914984
 10
4085.038523943085
 20
4250.254798914984
 10
4085.038523943085
 20
4250.368879612294
 10
4084.981620129541
 20
4250.597056419056
 10
4084.981620129541
 20
4250.597056419056
 10
4080.020389129979
 20
4263.883635443556
 10
4080.020389129979
 20
4263.883635443556
 10
4079.735171981768
 20
4264.624975030322
 10
4079.450108955003
 20
4264.624975030322
 10
4079.165045928237
 20
4263.883635443556
 10
4079.165045928237
 20
4263.883635443556
 10
4074.489032076888
 20
4250.597056419056
 10
4074.489032076888
 20
4250.597056419056
 10
4074.432130438975
 20
4250.368879612294
 10
4074.489032076888
 20
4250.254798914984
 10
4074.660153118528
 20
4250.254798914984
 10
4074.660153118528
 20
4250.254798914984
 10
4084.810344966455
 20
4250.254798914984
 10
4084.810344966455
 20
4250.254798914984
 97
        0
 97
        0
 75
     2
 76
     1
 98
        0
450
        0
451
        0
460
0.0
461
0.0
452
        1
462
0.0
453
        0
470

  0
SPLINE
  5
2DB
330
2CE
100
AcDbEntity
  8
0
370
     0
100
AcDbSpline
210
0.0
220
0.0
230
1.0
 70
     9
 71
     3
 72
   113
 73
   109
 74
     0
 42
0.000000001
 43
0.0000000001
 40
0.0
 40
0.0
 40
0.0
 40
0.0
 40
1.0
 40
1.0
 40
1.0
 40
2.0
 40
2.0
 40
2.0
 40
3.0
 40
3.0
 40
3.0
 40
4.0
 40
4.0
 40
4.0
 40
5.0
 40
5.0
 40
5.0
 40
6.0
 40
6.0
 40
6.0
 40
7.0
 40
7.0
 40
7.0
 40
8.0
 40
8.0
 40
8.0
 40
9.0
 40
9.0
 40
9.0
 40
10.0
 40
10.0
 40
10.0
 40
11.0
 40
11.0
 40
11.0
 40
12.0
 40
12.0
 40
12.0
 40
13.0
 40
13.0
 40
13.0
 40
14.0
 40
14.0
 40
14.0
 40
15.0
 40
15.0
 40
15.0
 40
16.0
 40
16.0
 40
16.0
 40
17.0
 40
17.0
 40
17.0
 40
18.0
 40
18.0
 40
18.0
 40
19.0
 40
19.0
 40
19.0
 40
20.0
 40
20.0
 40
20.0
 40
21.0
 40
21.0
 40
21.0
 40
22.0
 40
22.0
 40
22.0
 40
23.0
 40
23.0
 40
23.0
 40
24.0
 40
24.0
 40
24.0
 40
25.0
 40
25.0
 40
25.0
 40
26.0
 40
26.0
 40
26.0
 40
27.0
 40
27.0
 40
27.0
 40
28.0
 40
28.0
 40
28.0
 40
29.0
 40
29.0
 40
29.0
 40
30.0
 40
30.0
 40
30.0
 40
31.0
 40
31.0
 40
31.0
 40
32.0
 40
32.0
 40
32.0
 40
33.0
 40
33.0
 40
33.0
 40
34.0
 40
34.0
 40
34.0
 40
35.0
 40
35.0
 40
35.0
 40
36.0
 40
36.0
 40
36.0
 40
36.0
 10
4110.246409726745
 20
4257.382915978651
 30
0.0
 10
4110.246409726745
 20
4264.910038064289
 30
0.0
 10
4110.246409726745
 20
4266.278621128368
 30
0.0
 10
4110.132313620172
 20
4267.818325238411
 30
0.0
 10
4110.018232925747
 20
4269.471971336455
 30
0.0
 10
4109.733169898981
 20
4270.270351271877
 30
0.0
 10
4108.079526600407
 20
4270.498435605769
 30
0.0
 10
4107.680226000073
 20
4270.555491366568
 30
0.0
 10
4106.82502150763
 20
4270.612531715221
 30
0.0
 10
4106.368683317779
 20
4270.612531715221
 30
0.0
 10
4106.197703695598
 20
4270.612531715221
 30
0.0
 10
4105.969539596587
 20
4270.840554400535
 30
0.0
 10
4105.969539596587
 20
4271.011675446498
 30
0.0
 10
4105.969539596587
 20
4271.296738480464
 30
0.0
 10
4106.197703695598
 20
4271.410834589918
 30
0.0
 10
4106.767981160419
 20
4271.410911650643
 30
0.0
 10
4109.048950521066
 20
4271.410911650643
 30
0.0
 10
4112.413434320081
 20
4271.29681554119
 30
0.0
 10
4112.698497346846
 20
4271.29681554119
 30
0.0
 10
4113.211737174609
 20
4271.29681554119
 30
0.0
 10
4117.431412836107
 20
4271.410911650643
 30
0.0
 10
4118.971116907252
 20
4271.410834589918
 30
0.0
 10
4122.164482446815
 20
4271.410834589918
 30
0.0
 10
4125.700090069655
 20
4271.125694495228
 30
0.0
 10
4128.323160022097
 20
4269.300911939073
 30
0.0
 10
4129.57750823573
 20
4268.388528367069
 30
0.0
 10
4131.80143782394
 20
4266.050598443055
 30
0.0
 10
4131.80143782394
 20
4262.686111776861
 30
0.0
 10
4131.80143782394
 20
4259.093602425352
 30
0.0
 10
4130.318909452347
 20
4255.615035061847
 30
0.0
 10
4125.642898802381
 20
4251.623536100512
 30
0.0
 10
4129.748783398816
 20
4246.491168517514
 30
0.0
 10
4133.227061236674
 20
4242.100356291309
 30
0.0
 10
4136.135499065796
 20
4239.078142541329
 30
0.0
 10
4138.815470656147
 20
4236.340976413172
 30
0.0
 10
4140.469255421719
 20
4235.884776921098
 30
0.0
 10
4141.7238964661
 20
4235.713655875134
 30
0.0
 10
4142.693181652968
 20
4235.542519417026
 30
0.0
 10
4143.206425125808
 20
4235.542519417026
 30
0.0
 10
4143.491484507495
 20
4235.542519417026
 30
0.0
 10
4143.776547534261
 20
4235.542519417026
 30
0.0
 10
4143.947822697348
 20
4235.314496731714
 30
0.0
 10
4143.947822697348
 20
4235.14337568575
 30
0.0
 10
4143.947822697348
 20
4234.858312651784
 30
0.0
 10
4143.662470496431
 20
4234.74421654233
 30
0.0
 10
4142.750083290879
 20
4234.74421654233
 30
0.0
 10
4142.750083290879
 20
4234.74421654233
 30
0.0
 10
4139.613758098533
 20
4234.74421654233
 30
0.0
 10
4139.613758098533
 20
4234.74421654233
 30
0.0
 10
4136.762819587985
 20
4234.74421654233
 30
0.0
 10
4135.508178543604
 20
4235.029433697746
 30
0.0
 10
4134.253522087078
 20
4235.713655875134
 30
0.0
 10
4132.086805736635
 20
4236.854216253902
 30
0.0
 10
4130.26202322658
 20
4239.192069117189
 30
0.0
 10
4127.410776473142
 20
4242.841618817351
 30
0.0
 10
4125.300792227019
 20
4245.464842957506
 30
0.0
 10
4123.076865995771
 20
4248.601152816939
 30
0.0
 10
4121.993345993031
 20
4249.912695532364
 30
0.0
 10
4121.765323313479
 20
4250.140718217675
 30
0.0
 10
4121.651242619051
 20
4250.19791268778
 30
0.0
 10
4121.309139245073
 20
4250.19791268778
 30
0.0
 10
4121.309139245073
 20
4250.19791268778
 30
0.0
 10
4114.922423578094
 20
4250.311839263638
 30
0.0
 10
4114.922423578094
 20
4250.311839263638
 30
0.0
 10
4114.694246777096
 20
4250.311839263638
 30
0.0
 10
4114.580166082669
 20
4250.19791268778
 30
0.0
 10
4114.580166082669
 20
4249.912695532364
 30
0.0
 10
4114.580166082669
 20
4249.912695532364
 30
0.0
 10
4114.580166082669
 20
4248.772289275047
 30
0.0
 10
4114.580166082669
 20
4248.772289275047
 30
0.0
 10
4114.580166082669
 20
4244.096259893427
 30
0.0
 10
4114.580166082669
 20
4240.332629495955
 30
0.0
 10
4114.808342883667
 20
4238.336880015288
 30
0.0
 10
4114.979325216006
 20
4236.911256602556
 30
0.0
 10
4115.264526952072
 20
4235.998873030552
 30
0.0
 10
4116.804092313918
 20
4235.770696223789
 30
0.0
 10
4117.488607304767
 20
4235.656615526479
 30
0.0
 10
4118.57197318606
 20
4235.542519417026
 30
0.0
 10
4119.02817266661
 20
4235.542519417026
 30
0.0
 10
4119.37027604059
 20
4235.542519417026
 30
0.0
 10
4119.427316387802
 20
4235.314496731714
 30
0.0
 10
4119.427316387802
 20
4235.14337568575
 30
0.0
 10
4119.427316387802
 20
4234.915353000437
 30
0.0
 10
4119.19929370825
 20
4234.74421654233
 30
0.0
 10
4118.629013533275
 20
4234.74421654233
 30
0.0
 10
4115.891847474261
 20
4234.74421654233
 30
0.0
 10
4112.698497346846
 20
4234.915353000437
 30
0.0
 10
4112.470335957993
 20
4234.915353000437
 30
0.0
 10
4112.413434320081
 20
4234.915353000437
 30
0.0
 10
4109.048950521066
 20
4234.74421654233
 30
0.0
 10
4107.509243667733
 20
4234.74421654233
 30
0.0
 10
4106.996003839968
 20
4234.74421654233
 30
0.0
 10
4106.710940813203
 20
4234.858312651784
 30
0.0
 10
4106.710940813203
 20
4235.14337568575
 30
0.0
 10
4106.710940813203
 20
4235.314496731714
 30
0.0
 10
4106.82502150763
 20
4235.542519417026
 30
0.0
 10
4107.110102679747
 20
4235.542519417026
 30
0.0
 10
4107.566284014946
 20
4235.542519417026
 30
0.0
 10
4108.193465827834
 20
4235.656615526479
 30
0.0
 10
4108.649804017686
 20
4235.770696223789
 30
0.0
 10
4109.619089204554
 20
4235.998873030552
 30
0.0
 10
4109.733169898981
 20
4236.911256602556
 30
0.0
 10
4109.961349505215
 20
4238.336880015288
 30
0.0
 10
4110.246409726745
 20
4240.332629495955
 30
0.0
 10
4110.246409726745
 20
4244.153300242081
 30
0.0
 10
4110.246409726745
 20
4248.829175502252
 30
0.0
 10
4110.246409726745
 20
4248.829175502252
 30
0.0
 10
4110.246409726745
 20
4257.382915978651
 30
0.0
 10
4110.246409726745
 20
4257.382915978651
 30
0.0
  0
SPLINE
  5
2DC
330
2CE
100
AcDbEntity
  8
0
370
     0
100
AcDbSpline
210
0.0
220
0.0
230
1.0
 70
     9
 71
     3
 72
    29
 73
    25
 74
     0
 42
0.000000001
 43
0.0000000001
 40
0.0
 40
0.0
 40
0.0
 40
0.0
 40
1.0
 40
1.0
 40
1.0
 40
2.0
 40
2.0
 40
2.0
 40
3.0
 40
3.0
 40
3.0
 40
4.0
 40
4.0
 40
4.0
 40
5.0
 40
5.0
 40
5.0
 40
6.0
 40
6.0
 40
6.0
 40
7.0
 40
7.0
 40
7.0
 40
8.0
 40
8.0
 40
8.0
 40
8.0
 10
4114.580166082669
 20
4253.277182198559
 30
0.0
 10
4114.580166082669
 20
4252.991965043142
 30
0.0
 10
4114.694246777096
 20
4252.820982706484
 30
0.0
 10
4114.922423578094
 20
4252.649861660522
 30
0.0
 10
4115.663843156148
 20
4252.250702517101
 30
0.0
 10
4118.229715690636
 20
4251.90859913448
 30
0.0
 10
4120.453641921884
 20
4251.90859913448
 30
0.0
 10
4121.651242619051
 20
4251.90859913448
 30
0.0
 10
4123.019825648557
 20
4251.965485361685
 30
0.0
 10
4124.217275389649
 20
4252.763942357831
 30
0.0
 10
4125.927958627761
 20
4253.904348615146
 30
0.0
 10
4127.239655431501
 20
4256.470532406647
 30
0.0
 10
4127.239655431501
 20
4260.17704539474
 30
0.0
 10
4127.239655431501
 20
4266.221642428294
 30
0.0
 10
4123.932209197511
 20
4269.700148143217
 30
0.0
 10
4118.57197318606
 20
4269.700148143217
 30
0.0
 10
4117.089312447432
 20
4269.700148143217
 30
0.0
 10
4115.492549631624
 20
4269.529011685111
 30
0.0
 10
4114.979325216006
 20
4269.415008048527
 30
0.0
 10
4114.751444171998
 20
4269.300911939073
 30
0.0
 10
4114.580166082669
 20
4269.129867953835
 30
0.0
 10
4114.580166082669
 20
4268.844727859144
 30
0.0
 10
4114.580166082669
 20
4268.844727859144
 30
0.0
 10
4114.580166082669
 20
4253.277182198559
 30
0.0
 10
4114.580166082669
 20
4253.277182198559
 30
0.0
  0
HATCH
  5
2DD
330
2CE
100
AcDbEntity
  8
0
100
AcDbHatch
 10
0.0
 20
0.0
 30
0.0
210
0.0
220
0.0
230
1.0
  2
SOLID
 70
     1
 71
     0
 91
        2
 92
        1
 93
        1
 72
     4
 94
        3
 73
     0
 74
     0
 95
      113
 96
      109
 40
0.0
 40
0.0
 40
0.0
 40
0.0
 40
1.0
 40
1.0
 40
1.0
 40
2.0
 40
2.0
 40
2.0
 40
3.0
 40
3.0
 40
3.0
 40
4.0
 40
4.0
 40
4.0
 40
5.0
 40
5.0
 40
5.0
 40
6.0
 40
6.0
 40
6.0
 40
7.0
 40
7.0
 40
7.0
 40
8.0
 40
8.0
 40
8.0
 40
9.0
 40
9.0
 40
9.0
 40
10.0
 40
10.0
 40
10.0
 40
11.0
 40
11.0
 40
11.0
 40
12.0
 40
12.0
 40
12.0
 40
13.0
 40
13.0
 40
13.0
 40
14.0
 40
14.0
 40
14.0
 40
15.0
 40
15.0
 40
15.0
 40
16.0
 40
16.0
 40
16.0
 40
17.0
 40
17.0
 40
17.0
 40
18.0
 40
18.0
 40
18.0
 40
19.0
 40
19.0
 40
19.0
 40
20.0
 40
20.0
 40
20.0
 40
21.0
 40
21.0
 40
21.0
 40
22.0
 40
22.0
 40
22.0
 40
23.0
 40
23.0
 40
23.0
 40
24.0
 40
24.0
 40
24.0
 40
25.0
 40
25.0
 40
25.0
 40
26.0
 40
26.0
 40
26.0
 40
27.0
 40
27.0
 40
27.0
 40
28.0
 40
28.0
 40
28.0
 40
29.0
 40
29.0
 40
29.0
 40
30.0
 40
30.0
 40
30.0
 40
31.0
 40
31.0
 40
31.0
 40
32.0
 40
32.0
 40
32.0
 40
33.0
 40
33.0
 40
33.0
 40
34.0
 40
34.0
 40
34.0
 40
35.0
 40
35.0
 40
35.0
 40
36.0
 40
36.0
 40
36.0
 40
36.0
 10
4110.246409726745
 20
4257.382915978651
 10
4110.246409726745
 20
4264.910038064289
 10
4110.246409726745
 20
4266.278621128368
 10
4110.132313620172
 20
4267.818325238411
 10
4110.018232925747
 20
4269.471971336455
 10
4109.733169898981
 20
4270.270351271877
 10
4108.079526600407
 20
4270.498435605769
 10
4107.680226000073
 20
4270.555491366568
 10
4106.82502150763
 20
4270.612531715221
 10
4106.368683317779
 20
4270.612531715221
 10
4106.197703695598
 20
4270.612531715221
 10
4105.969539596587
 20
4270.840554400535
 10
4105.969539596587
 20
4271.011675446498
 10
4105.969539596587
 20
4271.296738480464
 10
4106.197703695598
 20
4271.410834589918
 10
4106.767981160419
 20
4271.410911650643
 10
4109.048950521066
 20
4271.410911650643
 10
4112.413434320081
 20
4271.29681554119
 10
4112.698497346846
 20
4271.29681554119
 10
4113.211737174609
 20
4271.29681554119
 10
4117.431412836107
 20
4271.410911650643
 10
4118.971116907252
 20
4271.410834589918
 10
4122.164482446815
 20
4271.410834589918
 10
4125.700090069655
 20
4271.125694495228
 10
4128.323160022097
 20
4269.300911939073
 10
4129.57750823573
 20
4268.388528367069
 10
4131.80143782394
 20
4266.050598443055
 10
4131.80143782394
 20
4262.686111776861
 10
4131.80143782394
 20
4259.093602425352
 10
4130.318909452347
 20
4255.615035061847
 10
4125.642898802381
 20
4251.623536100512
 10
4129.748783398816
 20
4246.491168517514
 10
4133.227061236674
 20
4242.100356291309
 10
4136.135499065796
 20
4239.078142541329
 10
4138.815470656147
 20
4236.340976413172
 10
4140.469255421719
 20
4235.884776921098
 10
4141.7238964661
 20
4235.713655875134
 10
4142.693181652968
 20
4235.542519417026
 10
4143.206425125808
 20
4235.542519417026
 10
4143.491484507495
 20
4235.542519417026
 10
4143.776547534261
 20
4235.542519417026
 10
4143.947822697348
 20
4235.314496731714
 10
4143.947822697348
 20
4235.14337568575
 10
4143.947822697348
 20
4234.858312651784
 10
4143.662470496431
 20
4234.74421654233
 10
4142.750083290879
 20
4234.74421654233
 10
4142.750083290879
 20
4234.74421654233
 10
4139.613758098533
 20
4234.74421654233
 10
4139.613758098533
 20
4234.74421654233
 10
4136.762819587985
 20
4234.74421654233
 10
4135.508178543604
 20
4235.029433697746
 10
4134.253522087078
 20
4235.713655875134
 10
4132.086805736635
 20
4236.854216253902
 10
4130.26202322658
 20
4239.192069117189
 10
4127.410776473142
 20
4242.841618817351
 10
4125.300792227019
 20
4245.464842957506
 10
4123.076865995771
 20
4248.601152816939
 10
4121.993345993031
 20
4249.912695532364
 10
4121.765323313479
 20
4250.140718217675
 10
4121.651242619051
 20
4250.19791268778
 10
4121.309139245073
 20
4250.19791268778
 10
4121.309139245073
 20
4250.19791268778
 10
4114.922423578094
 20
4250.311839263638
 10
4114.922423578094
 20
4250.311839263638
 10
4114.694246777096
 20
4250.311839263638
 10
4114.580166082669
 20
4250.19791268778
 10
4114.580166082669
 20
4249.912695532364
 10
4114.580166082669
 20
4249.912695532364
 10
4114.580166082669
 20
4248.772289275047
 10
4114.580166082669
 20
4248.772289275047
 10
4114.580166082669
 20
4244.096259893427
 10
4114.580166082669
 20
4240.332629495955
 10
4114.808342883667
 20
4238.336880015288
 10
4114.979325216006
 20
4236.911256602556
 10
4115.264526952072
 20
4235.998873030552
 10
4116.804092313918
 20
4235.770696223789
 10
4117.488607304767
 20
4235.656615526479
 10
4118.57197318606
 20
4235.542519417026
 10
4119.02817266661
 20
4235.542519417026
 10
4119.37027604059
 20
4235.542519417026
 10
4119.427316387802
 20
4235.314496731714
 10
4119.427316387802
 20
4235.14337568575
 10
4119.427316387802
 20
4234.915353000437
 10
4119.19929370825
 20
4234.74421654233
 10
4118.629013533275
 20
4234.74421654233
 10
4115.891847474261
 20
4234.74421654233
 10
4112.698497346846
 20
4234.915353000437
 10
4112.470335957993
 20
4234.915353000437
 10
4112.413434320081
 20
4234.915353000437
 10
4109.048950521066
 20
4234.74421654233
 10
4107.509243667733
 20
4234.74421654233
 10
4106.996003839968
 20
4234.74421654233
 10
4106.710940813203
 20
4234.858312651784
 10
4106.710940813203
 20
4235.14337568575
 10
4106.710940813203
 20
4235.314496731714
 10
4106.82502150763
 20
4235.542519417026
 10
4107.110102679747
 20
4235.542519417026
 10
4107.566284014946
 20
4235.542519417026
 10
4108.193465827834
 20
4235.656615526479
 10
4108.649804017686
 20
4235.770696223789
 10
4109.619089204554
 20
4235.998873030552
 10
4109.733169898981
 20
4236.911256602556
 10
4109.961349505215
 20
4238.336880015288
 10
4110.246409726745
 20
4240.332629495955
 10
4110.246409726745
 20
4244.153300242081
 10
4110.246409726745
 20
4248.829175502252
 10
4110.246409726745
 20
4248.829175502252
 10
4110.246409726745
 20
4257.382915978651
 10
4110.246409726745
 20
4257.382915978651
 97
        0
 97
        0
 92
        1
 93
        1
 72
     4
 94
        3
 73
     0
 74
     0
 95
       29
 96
       25
 40
0.0
 40
0.0
 40
0.0
 40
0.0
 40
1.0
 40
1.0
 40
1.0
 40
2.0
 40
2.0
 40
2.0
 40
3.0
 40
3.0
 40
3.0
 40
4.0
 40
4.0
 40
4.0
 40
5.0
 40
5.0
 40
5.0
 40
6.0
 40
6.0
 40
6.0
 40
7.0
 40
7.0
 40
7.0
 40
8.0
 40
8.0
 40
8.0
 40
8.0
 10
4114.580166082669
 20
4253.277182198559
 10
4114.580166082669
 20
4252.991965043142
 10
4114.694246777096
 20
4252.820982706484
 10
4114.922423578094
 20
4252.649861660522
 10
4115.663843156148
 20
4252.250702517101
 10
4118.229715690636
 20
4251.90859913448
 10
4120.453641921884
 20
4251.90859913448
 10
4121.651242619051
 20
4251.90859913448
 10
4123.019825648557
 20
4251.965485361685
 10
4124.217275389649
 20
4252.763942357831
 10
4125.927958627761
 20
4253.904348615146
 10
4127.239655431501
 20
4256.470532406647
 10
4127.239655431501
 20
4260.17704539474
 10
4127.239655431501
 20
4266.221642428294
 10
4123.932209197511
 20
4269.700148143217
 10
4118.57197318606
 20
4269.700148143217
 10
4117.089312447432
 20
4269.700148143217
 10
4115.492549631624
 20
4269.529011685111
 10
4114.979325216006
 20
4269.415008048527
 10
4114.751444171998
 20
4269.300911939073
 10
4114.580166082669
 20
4269.129867953835
 10
4114.580166082669
 20
4268.844727859144
 10
4114.580166082669
 20
4268.844727859144
 10
4114.580166082669
 20
4253.277182198559
 10
4114.580166082669
 20
4253.277182198559
 97
        0
 97
        0
 75
     2
 76
     1
 98
        0
450
        0
451
        0
460
0.0
461
0.0
452
        1
462
0.0
453
        0
470

  0
SPLINE
  5
2DE
330
2CE
100
AcDbEntity
  8
0
370
     0
100
AcDbSpline
210
0.0
220
0.0
230
1.0
 70
     9
 71
     3
 72
    98
 73
    94
 74
     0
 42
0.000000001
 43
0.0000000001
 40
0.0
 40
0.0
 40
0.0
 40
0.0
 40
1.0
 40
1.0
 40
1.0
 40
2.0
 40
2.0
 40
2.0
 40
3.0
 40
3.0
 40
3.0
 40
4.0
 40
4.0
 40
4.0
 40
5.0
 40
5.0
 40
5.0
 40
6.0
 40
6.0
 40
6.0
 40
7.0
 40
7.0
 40
7.0
 40
8.0
 40
8.0
 40
8.0
 40
9.0
 40
9.0
 40
9.0
 40
10.0
 40
10.0
 40
10.0
 40
11.0
 40
11.0
 40
11.0
 40
12.0
 40
12.0
 40
12.0
 40
13.0
 40
13.0
 40
13.0
 40
14.0
 40
14.0
 40
14.0
 40
15.0
 40
15.0
 40
15.0
 40
16.0
 40
16.0
 40
16.0
 40
17.0
 40
17.0
 40
17.0
 40
18.0
 40
18.0
 40
18.0
 40
19.0
 40
19.0
 40
19.0
 40
20.0
 40
20.0
 40
20.0
 40
21.0
 40
21.0
 40
21.0
 40
22.0
 40
22.0
 40
22.0
 40
23.0
 40
23.0
 40
23.0
 40
24.0
 40
24.0
 40
24.0
 40
25.0
 40
25.0
 40
25.0
 40
26.0
 40
26.0
 40
26.0
 40
27.0
 40
27.0
 40
27.0
 40
28.0
 40
28.0
 40
28.0
 40
29.0
 40
29.0
 40
29.0
 40
30.0
 40
30.0
 40
30.0
 40
31.0
 40
31.0
 40
31.0
 40
31.0
 10
4158.831381026526
 20
4248.715248926393
 30
0.0
 10
4158.831381026526
 20
4241.587270572031
 30
0.0
 10
4158.945477135978
 20
4238.678983397909
 30
0.0
 10
4159.857860707982
 20
4237.82364017456
 30
0.0
 10
4160.656163582679
 20
4237.025337299864
 30
0.0
 10
4162.595026836142
 20
4236.683079795793
 30
0.0
 10
4166.529639570271
 20
4236.683079795793
 30
0.0
 10
4169.152709588976
 20
4236.683079795793
 30
0.0
 10
4171.376635876404
 20
4236.740120144447
 30
0.0
 10
4172.574390725276
 20
4238.165743557179
 30
0.0
 10
4173.201403020413
 20
4238.907006083222
 30
0.0
 10
4173.600562163834
 20
4239.933485764679
 30
0.0
 10
4173.771837331247
 20
4240.902909685339
 30
0.0
 10
4173.828723558451
 20
4241.24501306796
 30
0.0
 10
4173.999705895109
 20
4241.530076101927
 30
0.0
 10
4174.285077171975
 20
4241.530076101927
 30
0.0
 10
4174.512945735838
 20
4241.530076101927
 30
0.0
 10
4174.627026433147
 20
4241.302053416613
 30
0.0
 10
4174.627026433147
 20
4240.78882898803
 30
0.0
 10
4174.627026433147
 20
4240.275589147301
 30
0.0
 10
4174.285077171975
 20
4237.367301973179
 30
0.0
 10
4173.885918028555
 20
4235.94181726975
 30
0.0
 10
4173.543660524485
 20
4234.801272303129
 30
0.0
 10
4173.37269359997
 20
4234.630135845022
 30
0.0
 10
4170.692413699017
 20
4234.630135845022
 30
0.0
 10
4167.100058468959
 20
4234.630135845022
 30
0.0
 10
4164.305713282842
 20
4234.687330315126
 30
0.0
 10
4161.967706298105
 20
4234.801272303129
 30
0.0
 10
4159.686878371326
 20
4234.858312651784
 30
0.0
 10
4157.976191924626
 20
4234.915353000437
 30
0.0
 10
4156.493374041787
 20
4234.915353000437
 30
0.0
 10
4156.265212647171
 20
4234.915353000437
 30
0.0
 10
4155.410008133125
 20
4234.915353000437
 30
0.0
 10
4154.440430091017
 20
4234.858312651784
 30
0.0
 10
4153.41425865246
 20
4234.801272303129
 30
0.0
 10
4152.330596037468
 20
4234.74421654233
 30
0.0
 10
4151.532293182938
 20
4234.74421654233
 30
0.0
 10
4151.019053355176
 20
4234.74421654233
 30
0.0
 10
4150.733990328411
 20
4234.858312651784
 30
0.0
 10
4150.733990328411
 20
4235.14337568575
 30
0.0
 10
4150.733990328411
 20
4235.314496731714
 30
0.0
 10
4150.848074860959
 20
4235.542519417026
 30
0.0
 10
4151.133134049604
 20
4235.542519417026
 30
0.0
 10
4151.589487651599
 20
4235.542519417026
 30
0.0
 10
4152.216499930896
 20
4235.656615526479
 30
0.0
 10
4152.672853532894
 20
4235.770696223789
 30
0.0
 10
4153.642127216321
 20
4235.998873030552
 30
0.0
 10
4153.756223325775
 20
4236.911256602556
 30
0.0
 10
4153.98438472039
 20
4238.336880015288
 30
0.0
 10
4154.269447754359
 20
4240.332629495955
 30
0.0
 10
4154.269447754359
 20
4244.153300242081
 30
0.0
 10
4154.269447754359
 20
4248.829175502252
 30
0.0
 10
4154.269447754359
 20
4248.829175502252
 30
0.0
 10
4154.269447754359
 20
4257.382915978651
 30
0.0
 10
4154.269447754359
 20
4257.382915978651
 30
0.0
 10
4154.269447754359
 20
4264.910038064289
 30
0.0
 10
4154.269447754359
 20
4266.278621128368
 30
0.0
 10
4154.155367057049
 20
4267.818325238411
 30
0.0
 10
4154.041286359742
 20
4269.471971336455
 30
0.0
 10
4153.756223325775
 20
4270.270351271877
 30
0.0
 10
4152.10241923647
 20
4270.498435605769
 30
0.0
 10
4151.703260103133
 20
4270.555491366568
 30
0.0
 10
4150.848074860959
 20
4270.612531715221
 30
0.0
 10
4150.391732832986
 20
4270.612531715221
 30
0.0
 10
4150.220750500647
 20
4270.612531715221
 30
0.0
 10
4149.992573699649
 20
4270.840554400535
 30
0.0
 10
4149.992573699649
 20
4271.011675446498
 30
0.0
 10
4149.992573699649
 20
4271.296738480464
 30
0.0
 10
4150.220750500647
 20
4271.410834589918
 30
0.0
 10
4150.790876554178
 20
4271.410911650643
 30
0.0
 10
4153.072001148387
 20
4271.410911650643
 30
0.0
 10
4156.208311007821
 20
4271.29681554119
 30
0.0
 10
4156.493374041787
 20
4271.29681554119
 30
0.0
 10
4156.721550848549
 20
4271.29681554119
 30
0.0
 10
4160.485181246022
 20
4271.410911650643
 30
0.0
 10
4162.024900768209
 20
4271.410834589918
 30
0.0
 10
4162.538125196793
 20
4271.410834589918
 30
0.0
 10
4162.823188230759
 20
4271.296738480464
 30
0.0
 10
4162.823188230759
 20
4271.011675446498
 30
0.0
 10
4162.823188230759
 20
4270.840554400535
 30
0.0
 10
4162.595026836142
 20
4270.669495003152
 30
0.0
 10
4162.424044499483
 20
4270.669495003152
 30
0.0
 10
4162.081786995414
 20
4270.669495003152
 30
0.0
 10
4161.340370347921
 20
4270.612531715221
 30
0.0
 10
4160.770244279988
 20
4270.555491366568
 30
0.0
 10
4159.28773464005
 20
4270.270351271877
 30
0.0
 10
4159.002363363184
 20
4269.529011685111
 30
0.0
 10
4158.88857549663
 20
4267.818325238411
 30
0.0
 10
4158.831381026526
 20
4266.278621128368
 30
0.0
 10
4158.831381026526
 20
4264.910038064289
 30
0.0
 10
4158.831381026526
 20
4257.382915978651
 30
0.0
 10
4158.831381026526
 20
4257.382915978651
 30
0.0
 10
4158.831381026526
 20
4248.715248926393
 30
0.0
 10
4158.831381026526
 20
4248.715248926393
 30
0.0
  0
HATCH
  5
2DF
330
2CE
100
AcDbEntity
  8
0
100
AcDbHatch
 10
0.0
 20
0.0
 30
0.0
210
0.0
220
0.0
230
1.0
  2
SOLID
 70
     1
 71
     0
 91
        1
 92
        1
 93
        1
 72
     4
 94
        3
 73
     0
 74
     0
 95
       98
 96
       94
 40
0.0
 40
0.0
 40
0.0
 40
0.0
 40
1.0
 40
1.0
 40
1.0
 40
2.0
 40
2.0
 40
2.0
 40
3.0
 40
3.0
 40
3.0
 40
4.0
 40
4.0
 40
4.0
 40
5.0
 40
5.0
 40
5.0
 40
6.0
 40
6.0
 40
6.0
 40
7.0
 40
7.0
 40
7.0
 40
8.0
 40
8.0
 40
8.0
 40
9.0
 40
9.0
 40
9.0
 40
10.0
 40
10.0
 40
10.0
 40
11.0
 40
11.0
 40
11.0
 40
12.0
 40
12.0
 40
12.0
 40
13.0
 40
13.0
 40
13.0
 40
14.0
 40
14.0
 40
14.0
 40
15.0
 40
15.0
 40
15.0
 40
16.0
 40
16.0
 40
16.0
 40
17.0
 40
17.0
 40
17.0
 40
18.0
 40
18.0
 40
18.0
 40
19.0
 40
19.0
 40
19.0
 40
20.0
 40
20.0
 40
20.0
 40
21.0
 40
21.0
 40
21.0
 40
22.0
 40
22.0
 40
22.0
 40
23.0
 40
23.0
 40
23.0
 40
24.0
 40
24.0
 40
24.0
 40
25.0
 40
25.0
 40
25.0
 40
26.0
 40
26.0
 40
26.0
 40
27.0
 40
27.0
 40
27.0
 40
28.0
 40
28.0
 40
28.0
 40
29.0
 40
29.0
 40
29.0
 40
30.0
 40
30.0
 40
30.0
 40
31.0
 40
31.0
 40
31.0
 40
31.0
 10
4158.831381026526
 20
4248.715248926393
 10
4158.831381026526
 20
4241.587270572031
 10
4158.945477135978
 20
4238.678983397909
 10
4159.857860707982
 20
4237.82364017456
 10
4160.656163582679
 20
4237.025337299864
 10
4162.595026836142
 20
4236.683079795793
 10
4166.529639570271
 20
4236.683079795793
 10
4169.152709588976
 20
4236.683079795793
 10
4171.376635876404
 20
4236.740120144447
 10
4172.574390725276
 20
4238.165743557179
 10
4173.201403020413
 20
4238.907006083222
 10
4173.600562163834
 20
4239.933485764679
 10
4173.771837331247
 20
4240.902909685339
 10
4173.828723558451
 20
4241.24501306796
 10
4173.999705895109
 20
4241.530076101927
 10
4174.285077171975
 20
4241.530076101927
 10
4174.512945735838
 20
4241.530076101927
 10
4174.627026433147
 20
4241.302053416613
 10
4174.627026433147
 20
4240.78882898803
 10
4174.627026433147
 20
4240.275589147301
 10
4174.285077171975
 20
4237.367301973179
 10
4173.885918028555
 20
4235.94181726975
 10
4173.543660524485
 20
4234.801272303129
 10
4173.37269359997
 20
4234.630135845022
 10
4170.692413699017
 20
4234.630135845022
 10
4167.100058468959
 20
4234.630135845022
 10
4164.305713282842
 20
4234.687330315126
 10
4161.967706298105
 20
4234.801272303129
 10
4159.686878371326
 20
4234.858312651784
 10
4157.976191924626
 20
4234.915353000437
 10
4156.493374041787
 20
4234.915353000437
 10
4156.265212647171
 20
4234.915353000437
 10
4155.410008133125
 20
4234.915353000437
 10
4154.440430091017
 20
4234.858312651784
 10
4153.41425865246
 20
4234.801272303129
 10
4152.330596037468
 20
4234.74421654233
 10
4151.532293182938
 20
4234.74421654233
 10
4151.019053355176
 20
4234.74421654233
 10
4150.733990328411
 20
4234.858312651784
 10
4150.733990328411
 20
4235.14337568575
 10
4150.733990328411
 20
4235.314496731714
 10
4150.848074860959
 20
4235.542519417026
 10
4151.133134049604
 20
4235.542519417026
 10
4151.589487651599
 20
4235.542519417026
 10
4152.216499930896
 20
4235.656615526479
 10
4152.672853532894
 20
4235.770696223789
 10
4153.642127216321
 20
4235.998873030552
 10
4153.756223325775
 20
4236.911256602556
 10
4153.98438472039
 20
4238.336880015288
 10
4154.269447754359
 20
4240.332629495955
 10
4154.269447754359
 20
4244.153300242081
 10
4154.269447754359
 20
4248.829175502252
 10
4154.269447754359
 20
4248.829175502252
 10
4154.269447754359
 20
4257.382915978651
 10
4154.269447754359
 20
4257.382915978651
 10
4154.269447754359
 20
4264.910038064289
 10
4154.269447754359
 20
4266.278621128368
 10
4154.155367057049
 20
4267.818325238411
 10
4154.041286359742
 20
4269.471971336455
 10
4153.756223325775
 20
4270.270351271877
 10
4152.10241923647
 20
4270.498435605769
 10
4151.703260103133
 20
4270.555491366568
 10
4150.848074860959
 20
4270.612531715221
 10
4150.391732832986
 20
4270.612531715221
 10
4150.220750500647
 20
4270.612531715221
 10
4149.992573699649
 20
4270.840554400535
 10
4149.992573699649
 20
4271.011675446498
 10
4149.992573699649
 20
4271.296738480464
 10
4150.220750500647
 20
4271.410834589918
 10
4150.790876554178
 20
4271.410911650643
 10
4153.072001148387
 20
4271.410911650643
 10
4156.208311007821
 20
4271.29681554119
 10
4156.493374041787
 20
4271.29681554119
 10
4156.721550848549
 20
4271.29681554119
 10
4160.485181246022
 20
4271.410911650643
 10
4162.024900768209
 20
4271.410834589918
 10
4162.538125196793
 20
4271.410834589918
 10
4162.823188230759
 20
4271.296738480464
 10
4162.823188230759
 20
4271.011675446498
 10
4162.823188230759
 20
4270.840554400535
 10
4162.595026836142
 20
4270.669495003152
 10
4162.424044499483
 20
4270.669495003152
 10
4162.081786995414
 20
4270.669495003152
 10
4161.340370347921
 20
4270.612531715221
 10
4160.770244279988
 20
4270.555491366568
 10
4159.28773464005
 20
4270.270351271877
 10
4159.002363363184
 20
4269.529011685111
 10
4158.88857549663
 20
4267.818325238411
 10
4158.831381026526
 20
4266.278621128368
 10
4158.831381026526
 20
4264.910038064289
 10
4158.831381026526
 20
4257.382915978651
 10
4158.831381026526
 20
4257.382915978651
 10
4158.831381026526
 20
4248.715248926393
 10
4158.831381026526
 20
4248.715248926393
 97
        0
 97
        0
 75
     2
 76
     1
 98
        0
450
        0
451
        0
460
0.0
461
0.0
452
        1
462
0.0
453
        0
470

  0
SPLINE
  5
2E0
330
2CE
100
AcDbEntity
  8
0
370
     0
100
AcDbSpline
210
0.0
220
0.0
230
1.0
 70
     9
 71
     3
 72
    17
 73
    13
 74
     0
 42
0.000000001
 43
0.0000000001
 40
0.0
 40
0.0
 40
0.0
 40
0.0
 40
1.0
 40
1.0
 40
1.0
 40
2.0
 40
2.0
 40
2.0
 40
3.0
 40
3.0
 40
3.0
 40
4.0
 40
4.0
 40
4.0
 40
4.0
 10
3980.497682384505
 20
4287.532046147573
 30
0.0
 10
3980.497682384505
 20
4286.137817274211
 30
0.0
 10
3979.376078944092
 20
4285.031733863813
 30
0.0
 10
3977.951596030088
 20
4285.031733863813
 30
0.0
 10
3976.52688193391
 20
4285.031733863813
 30
0.0
 10
3975.390220827829
 20
4286.137817274211
 30
0.0
 10
3975.390220827829
 20
4287.532046147573
 30
0.0
 10
3975.390220827829
 20
4288.926275020936
 30
0.0
 10
3976.52688193391
 20
4290.017716893578
 30
0.0
 10
3977.966545810741
 20
4290.017716893578
 30
0.0
 10
3979.376078944092
 20
4290.017716893578
 30
0.0
 10
3980.497682384505
 20
4288.926275020936
 30
0.0
 10
3980.497682384505
 20
4287.532046147573
 30
0.0
  0
SPLINE
  5
2E1
330
2CE
100
AcDbEntity
  8
0
370
     0
100
AcDbSpline
210
0.0
220
0.0
230
1.0
 70
     9
 71
     3
 72
    17
 73
    13
 74
     0
 42
0.000000001
 43
0.0000000001
 40
0.0
 40
0.0
 40
0.0
 40
0.0
 40
1.0
 40
1.0
 40
1.0
 40
2.0
 40
2.0
 40
2.0
 40
3.0
 40
3.0
 40
3.0
 40
4.0
 40
4.0
 40
4.0
 40
4.0
 10
3976.026711592144
 20
4287.532046147573
 30
0.0
 10
3976.026711592144
 20
4286.425731555001
 30
0.0
 10
3976.860369927475
 20
4285.546853986232
 30
0.0
 10
3977.966545810741
 20
4285.546853986232
 30
0.0
 10
3979.042714247687
 20
4285.53156513839
 30
0.0
 10
3979.861068323031
 20
4286.425731555001
 30
0.0
 10
3979.861068323031
 20
4287.516957657614
 30
0.0
 10
3979.861068323031
 20
4288.623272250187
 30
0.0
 10
3979.042714247687
 20
4289.517669848973
 30
0.0
 10
3977.936399655116
 20
4289.517669848973
 30
0.0
 10
3976.860369927475
 20
4289.517669848973
 30
0.0
 10
3976.026711592144
 20
4288.623272250187
 30
0.0
 10
3976.026711592144
 20
4287.532046147573
 30
0.0
  0
SPLINE
  5
2E2
330
2CE
100
AcDbEntity
  8
0
370
     0
100
AcDbSpline
210
0.0
220
0.0
230
1.0
 70
    11
 71
     3
 72
    47
 73
    43
 74
     0
 42
0.000000001
 43
0.0000000001
 40
0.0
 40
0.0
 40
0.0
 40
0.0
 40
1.0
 40
1.0
 40
1.0
 40
2.0
 40
2.0
 40
2.0
 40
3.0
 40
3.0
 40
3.0
 40
4.0
 40
4.0
 40
4.0
 40
5.0
 40
5.0
 40
5.0
 40
6.0
 40
6.0
 40
6.0
 40
7.0
 40
7.0
 40
7.0
 40
8.0
 40
8.0
 40
8.0
 40
9.0
 40
9.0
 40
9.0
 40
10.0
 40
10.0
 40
10.0
 40
11.0
 40
11.0
 40
11.0
 40
12.0
 40
12.0
 40
12.0
 40
13.0
 40
13.0
 40
13.0
 40
14.0
 40
14.0
 40
14.0
 40
14.0
 10
3977.557353360924
 20
4286.243991541131
 30
0.0
 10
3977.557353360924
 20
4286.243991541131
 30
0.0
 10
3976.981601860064
 20
4286.243991541131
 30
0.0
 10
3976.981601860064
 20
4286.243991541131
 30
0.0
 10
3976.981601860064
 20
4286.243991541131
 30
0.0
 10
3976.981601860064
 20
4288.729446517108
 30
0.0
 10
3976.981601860064
 20
4288.729446517108
 30
0.0
 10
3977.208930998852
 20
4288.759592672733
 30
0.0
 10
3977.527006847413
 20
4288.805258858376
 30
0.0
 10
3977.936399655116
 20
4288.805258858376
 30
0.0
 10
3978.406100186213
 20
4288.805258858376
 30
0.0
 10
3978.618232950028
 20
4288.729446517108
 30
0.0
 10
3978.785023183246
 20
4288.607952578054
 30
0.0
 10
3978.936539980765
 20
4288.502009493305
 30
0.0
 10
3979.042714247687
 20
4288.320269479437
 30
0.0
 10
3979.042714247687
 20
4288.077743965676
 30
0.0
 10
3979.042714247687
 20
4287.774540837043
 30
0.0
 10
3978.815277223885
 20
4287.577712333216
 30
0.0
 10
3978.527347530948
 20
4287.486826914135
 30
0.0
 10
3978.527347530948
 20
4287.486826914135
 30
0.0
 10
3978.527347530948
 20
4287.456449576334
 30
0.0
 10
3978.527347530948
 20
4287.456449576334
 30
0.0
 10
3978.769842220418
 20
4287.380652647214
 30
0.0
 10
3978.891104977298
 20
4287.183577549065
 30
0.0
 10
3978.966901906421
 20
4286.850212852661
 30
0.0
 10
3979.042714247687
 20
4286.471181970614
 30
0.0
 10
3979.103222328967
 20
4286.334846135922
 30
0.0
 10
3979.148765217451
 20
4286.243991541131
 30
0.0
 10
3979.148765217451
 20
4286.243991541131
 30
0.0
 10
3978.542528493775
 20
4286.243991541131
 30
0.0
 10
3978.542528493775
 20
4286.243991541131
 30
0.0
 10
3978.466731564653
 20
4286.334846135922
 30
0.0
 10
3978.421296561186
 20
4286.546994311882
 30
0.0
 10
3978.345484219918
 20
4286.850212852661
 30
0.0
 10
3978.300033804305
 20
4287.107780619943
 30
0.0
 10
3978.148424533916
 20
4287.229043376822
 30
0.0
 10
3977.830348685354
 20
4287.229043376822
 30
0.0
 10
3977.830348685354
 20
4287.229043376822
 30
0.0
 10
3977.557353360924
 20
4287.229043376822
 30
0.0
 10
3977.557353360924
 20
4287.229043376822
 30
0.0
 10
3977.557353360924
 20
4287.229043376822
 30
0.0
 10
3977.557353360924
 20
4286.243991541131
 30
0.0
 10
3977.557353360924
 20
4286.243991541131
 30
0.0
  0
SPLINE
  5
2E3
330
2CE
100
AcDbEntity
  8
0
370
     0
100
AcDbSpline
210
0.0
220
0.0
230
1.0
 70
    11
 71
     3
 72
    20
 73
    16
 74
     0
 42
0.000000001
 43
0.0000000001
 40
0.0
 40
0.0
 40
0.0
 40
0.0
 40
1.0
 40
1.0
 40
1.0
 40
2.0
 40
2.0
 40
2.0
 40
3.0
 40
3.0
 40
3.0
 40
4.0
 40
4.0
 40
4.0
 40
5.0
 40
5.0
 40
5.0
 40
5.0
 10
3977.572673033056
 20
4287.638220414494
 30
0.0
 10
3977.572673033056
 20
4287.638220414494
 30
0.0
 10
3977.845313878151
 20
4287.638220414494
 30
0.0
 10
3977.845313878151
 20
4287.638220414494
 30
0.0
 10
3978.163605496743
 20
4287.638220414494
 30
0.0
 10
3978.421296561186
 20
4287.744394681417
 30
0.0
 10
3978.421296561186
 20
4288.001947036555
 30
0.0
 10
3978.421296561186
 20
4288.229384060357
 30
0.0
 10
3978.254490915823
 20
4288.380762148572
 30
0.0
 10
3977.890733469474
 20
4288.380762148572
 30
0.0
 10
3977.739247496244
 20
4288.380762148572
 30
0.0
 10
3977.633304411496
 20
4288.365457888584
 30
0.0
 10
3977.572673033056
 20
4288.350615992946
 30
0.0
 10
3977.572673033056
 20
4288.350615992946
 30
0.0
 10
3977.572673033056
 20
4287.638220414494
 30
0.0
 10
3977.572673033056
 20
4287.638220414494
 30
0.0
  0
HATCH
  5
2E4
330
2CE
100
AcDbEntity
  8
0
100
AcDbHatch
 10
0.0
 20
0.0
 30
0.0
210
0.0
220
0.0
230
1.0
  2
SOLID
 70
     1
 71
     0
 91
        4
 92
        1
 93
        1
 72
     4
 94
        3
 73
     0
 74
     0
 95
       17
 96
       13
 40
0.0
 40
0.0
 40
0.0
 40
0.0
 40
1.0
 40
1.0
 40
1.0
 40
2.0
 40
2.0
 40
2.0
 40
3.0
 40
3.0
 40
3.0
 40
4.0
 40
4.0
 40
4.0
 40
4.0
 10
3980.497682384505
 20
4287.532046147573
 10
3980.497682384505
 20
4286.137817274211
 10
3979.376078944092
 20
4285.031733863813
 10
3977.951596030088
 20
4285.031733863813
 10
3976.52688193391
 20
4285.031733863813
 10
3975.390220827829
 20
4286.137817274211
 10
3975.390220827829
 20
4287.532046147573
 10
3975.390220827829
 20
4288.926275020936
 10
3976.52688193391
 20
4290.017716893578
 10
3977.966545810741
 20
4290.017716893578
 10
3979.376078944092
 20
4290.017716893578
 10
3980.497682384505
 20
4288.926275020936
 10
3980.497682384505
 20
4287.532046147573
 97
        0
 97
        0
 92
        1
 93
        1
 72
     4
 94
        3
 73
     0
 74
     0
 95
       17
 96
       13
 40
0.0
 40
0.0
 40
0.0
 40
0.0
 40
1.0
 40
1.0
 40
1.0
 40
2.0
 40
2.0
 40
2.0
 40
3.0
 40
3.0
 40
3.0
 40
4.0
 40
4.0
 40
4.0
 40
4.0
 10
3976.026711592144
 20
4287.532046147573
 10
3976.026711592144
 20
4286.425731555001
 10
3976.860369927475
 20
4285.546853986232
 10
3977.966545810741
 20
4285.546853986232
 10
3979.042714247687
 20
4285.53156513839
 10
3979.861068323031
 20
4286.425731555001
 10
3979.861068323031
 20
4287.516957657614
 10
3979.861068323031
 20
4288.623272250187
 10
3979.042714247687
 20
4289.517669848973
 10
3977.936399655116
 20
4289.517669848973
 10
3976.860369927475
 20
4289.517669848973
 10
3976.026711592144
 20
4288.623272250187
 10
3976.026711592144
 20
4287.532046147573
 97
        0
 97
        0
 92
        1
 93
        1
 72
     4
 94
        3
 73
     0
 74
     0
 95
       47
 96
       43
 40
0.0
 40
0.0
 40
0.0
 40
0.0
 40
1.0
 40
1.0
 40
1.0
 40
2.0
 40
2.0
 40
2.0
 40
3.0
 40
3.0
 40
3.0
 40
4.0
 40
4.0
 40
4.0
 40
5.0
 40
5.0
 40
5.0
 40
6.0
 40
6.0
 40
6.0
 40
7.0
 40
7.0
 40
7.0
 40
8.0
 40
8.0
 40
8.0
 40
9.0
 40
9.0
 40
9.0
 40
10.0
 40
10.0
 40
10.0
 40
11.0
 40
11.0
 40
11.0
 40
12.0
 40
12.0
 40
12.0
 40
13.0
 40
13.0
 40
13.0
 40
14.0
 40
14.0
 40
14.0
 40
14.0
 10
3977.557353360924
 20
4286.243991541131
 10
3977.557353360924
 20
4286.243991541131
 10
3976.981601860064
 20
4286.243991541131
 10
3976.981601860064
 20
4286.243991541131
 10
3976.981601860064
 20
4286.243991541131
 10
3976.981601860064
 20
4288.729446517108
 10
3976.981601860064
 20
4288.729446517108
 10
3977.208930998852
 20
4288.759592672733
 10
3977.527006847413
 20
4288.805258858376
 10
3977.936399655116
 20
4288.805258858376
 10
3978.406100186213
 20
4288.805258858376
 10
3978.618232950028
 20
4288.729446517108
 10
3978.785023183246
 20
4288.607952578054
 10
3978.936539980765
 20
4288.502009493305
 10
3979.042714247687
 20
4288.320269479437
 10
3979.042714247687
 20
4288.077743965676
 10
3979.042714247687
 20
4287.774540837043
 10
3978.815277223885
 20
4287.577712333216
 10
3978.527347530948
 20
4287.486826914135
 10
3978.527347530948
 20
4287.486826914135
 10
3978.527347530948
 20
4287.456449576334
 10
3978.527347530948
 20
4287.456449576334
 10
3978.769842220418
 20
4287.380652647214
 10
3978.891104977298
 20
4287.183577549065
 10
3978.966901906421
 20
4286.850212852661
 10
3979.042714247687
 20
4286.471181970614
 10
3979.103222328967
 20
4286.334846135922
 10
3979.148765217451
 20
4286.243991541131
 10
3979.148765217451
 20
4286.243991541131
 10
3978.542528493775
 20
4286.243991541131
 10
3978.542528493775
 20
4286.243991541131
 10
3978.466731564653
 20
4286.334846135922
 10
3978.421296561186
 20
4286.546994311882
 10
3978.345484219918
 20
4286.850212852661
 10
3978.300033804305
 20
4287.107780619943
 10
3978.148424533916
 20
4287.229043376822
 10
3977.830348685354
 20
4287.229043376822
 10
3977.830348685354
 20
4287.229043376822
 10
3977.557353360924
 20
4287.229043376822
 10
3977.557353360924
 20
4287.229043376822
 10
3977.557353360924
 20
4287.229043376822
 10
3977.557353360924
 20
4286.243991541131
 10
3977.557353360924
 20
4286.243991541131
 97
        0
 97
        0
 92
        1
 93
        1
 72
     4
 94
        3
 73
     0
 74
     0
 95
       20
 96
       16
 40
0.0
 40
0.0
 40
0.0
 40
0.0
 40
1.0
 40
1.0
 40
1.0
 40
2.0
 40
2.0
 40
2.0
 40
3.0
 40
3.0
 40
3.0
 40
4.0
 40
4.0
 40
4.0
 40
5.0
 40
5.0
 40
5.0
 40
5.0
 10
3977.572673033056
 20
4287.638220414494
 10
3977.572673033056
 20
4287.638220414494
 10
3977.845313878151
 20
4287.638220414494
 10
3977.845313878151
 20
4287.638220414494
 10
3978.163605496743
 20
4287.638220414494
 10
3978.421296561186
 20
4287.744394681417
 10
3978.421296561186
 20
4288.001947036555
 10
3978.421296561186
 20
4288.229384060357
 10
3978.254490915823
 20
4288.380762148572
 10
3977.890733469474
 20
4288.380762148572
 10
3977.739247496244
 20
4288.380762148572
 10
3977.633304411496
 20
4288.365457888584
 10
3977.572673033056
 20
4288.350615992946
 10
3977.572673033056
 20
4288.350615992946
 10
3977.572673033056
 20
4287.638220414494
 10
3977.572673033056
 20
4287.638220414494
 97
        0
 97
        0
 75
     2
 76
     1
 98
        0
450
        0
451
        0
460
0.0
461
0.0
452
        1
462
0.0
453
        0
470

  0
ENDBLK
  5
2E5
330
2CE
100
AcDbEntity
  8
0
100
AcDbBlockEnd
  0
BLOCK
  5
3CF
330
3CD
100
AcDbEntity
  8
0
100
AcDbBlockBegin
  2
1.1
 70
     0
 10
0.0
 20
0.0
 30
0.0
  3
1.1
  1

  0
SPLINE
  5
3D0
330
3CD
100
AcDbEntity
  8
0
370
     0
100
AcDbSpline
210
0.0
220
0.0
230
1.0
 70
     9
 71
     3
 72
    17
 73
    13
 74
     0
 42
0.000000001
 43
0.0000000001
 40
0.0
 40
0.0
 40
0.0
 40
0.0
 40
1.0
 40
1.0
 40
1.0
 40
2.0
 40
2.0
 40
2.0
 40
3.0
 40
3.0
 40
3.0
 40
4.0
 40
4.0
 40
4.0
 40
4.0
 10
690.8192287182941
 20
581.4140123371299
 30
0.0
 10
672.2082467840622
 20
581.4140123371299
 30
0.0
 10
657.0670164663937
 20
566.2118269859761
 30
0.0
 10
657.0670164663937
 20
547.5254950748268
 30
0.0
 10
657.0670164663937
 20
528.8400108316529
 30
0.0
 10
672.2082467840622
 20
513.637363116149
 30
0.0
 10
690.8192287182941
 20
513.637363116149
 30
0.0
 10
709.4299948824962
 20
513.637363116149
 30
0.0
 10
724.5707011872347
 20
528.8400108316529
 30
0.0
 10
724.5707011872347
 20
547.5254950748268
 30
0.0
 10
724.5707011872347
 20
566.2118269859761
 30
0.0
 10
709.4299948824962
 20
581.4140123371299
 30
0.0
 10
690.8192287182941
 20
581.4140123371299
 30
0.0
  0
SPLINE
  5
3D1
330
3CD
100
AcDbEntity
  8
0
370
     0
100
AcDbSpline
210
0.0
220
0.0
230
1.0
 70
     9
 71
     3
 72
    32
 73
    28
 74
     0
 42
0.000000001
 43
0.0000000001
 40
0.0
 40
0.0
 40
0.0
 40
0.0
 40
1.0
 40
1.0
 40
1.0
 40
2.0
 40
2.0
 40
2.0
 40
3.0
 40
3.0
 40
3.0
 40
4.0
 40
4.0
 40
4.0
 40
5.0
 40
5.0
 40
5.0
 40
6.0
 40
6.0
 40
6.0
 40
7.0
 40
7.0
 40
7.0
 40
8.0
 40
8.0
 40
8.0
 40
9.0
 40
9.0
 40
9.0
 40
9.0
 10
691.855340990379
 20
515.7357728946773
 30
0.0
 10
691.855340990379
 20
515.7357728946773
 30
0.0
 10
691.855340990379
 20
521.8768499559478
 30
0.0
 10
691.855340990379
 20
521.8768499559478
 30
0.0
 10
705.4773961751489
 20
522.4253065480077
 30
0.0
 10
716.3921847930659
 20
533.7173998877313
 30
0.0
 10
716.3921847930659
 20
547.5254950748268
 30
0.0
 10
716.3921847930659
 20
561.6833072441749
 30
0.0
 10
704.9202933697429
 20
573.2013272174904
 30
0.0
 10
690.8192287182941
 20
573.2013272174904
 30
0.0
 10
690.2470682472205
 20
573.2013272174904
 30
0.0
 10
689.7832705676599
 20
572.7375295379295
 30
0.0
 10
689.7832705676599
 20
572.1652149454057
 30
0.0
 10
689.7832705676599
 20
572.1652149454057
 30
0.0
 10
689.7832705676599
 20
515.7357728946773
 30
0.0
 10
689.7832705676599
 20
515.7357728946773
 30
0.0
 10
672.7933380447932
 20
516.2881441715681
 30
0.0
 10
659.1392255984181
 20
530.330796793457
 30
0.0
 10
659.1392255984181
 20
547.5254950748268
 30
0.0
 10
659.1392255984181
 20
565.0691551433441
 30
0.0
 10
673.3509032145494
 20
579.3419419144107
 30
0.0
 10
690.8192287182941
 20
579.3419419144107
 30
0.0
 10
708.2873384520088
 20
579.3419419144107
 30
0.0
 10
722.4986461766607
 20
565.0691551433441
 30
0.0
 10
722.4986461766607
 20
547.5254950748268
 30
0.0
 10
722.4986461766607
 20
530.330796793457
 30
0.0
 10
708.8447495003154
 20
516.2881441715681
 30
0.0
 10
691.855340990379
 20
515.7357728946773
 30
0.0
  0
SPLINE
  5
3D2
330
3CD
100
AcDbEntity
  8
0
370
     0
100
AcDbSpline
210
0.0
220
0.0
230
1.0
 70
     9
 71
     3
 72
    14
 73
    10
 74
     0
 42
0.000000001
 43
0.0000000001
 40
0.0
 40
0.0
 40
0.0
 40
0.0
 40
1.0
 40
1.0
 40
1.0
 40
2.0
 40
2.0
 40
2.0
 40
3.0
 40
3.0
 40
3.0
 40
3.0
 10
691.855340990379
 20
523.9490590879722
 30
0.0
 10
691.855340990379
 20
523.9490590879722
 30
0.0
 10
691.855340990379
 20
571.1026246082068
 30
0.0
 10
691.855340990379
 20
571.1026246082068
 30
0.0
 10
704.3344315017621
 20
570.5558171156622
 30
0.0
 10
714.3201143703467
 20
560.1917506751203
 30
0.0
 10
714.3201143703467
 20
547.5254950748268
 30
0.0
 10
714.3201143703467
 20
534.8600717303634
 30
0.0
 10
704.3344315017621
 20
524.4957124590666
 30
0.0
 10
691.855340990379
 20
523.9490590879722
 30
0.0
  0
HATCH
  5
3D3
330
3CD
100
AcDbEntity
  8
0
100
AcDbHatch
 10
0.0
 20
0.0
 30
0.0
210
0.0
220
0.0
230
1.0
  2
SOLID
 70
     1
 71
     0
 91
        3
 92
        1
 93
        1
 72
     4
 94
        3
 73
     0
 74
     0
 95
       17
 96
       13
 40
0.0
 40
0.0
 40
0.0
 40
0.0
 40
1.0
 40
1.0
 40
1.0
 40
2.0
 40
2.0
 40
2.0
 40
3.0
 40
3.0
 40
3.0
 40
4.0
 40
4.0
 40
4.0
 40
4.0
 10
690.8192287182941
 20
581.4140123371299
 10
672.2082467840622
 20
581.4140123371299
 10
657.0670164663937
 20
566.2118269859761
 10
657.0670164663937
 20
547.5254950748268
 10
657.0670164663937
 20
528.8400108316529
 10
672.2082467840622
 20
513.637363116149
 10
690.8192287182941
 20
513.637363116149
 10
709.4299948824962
 20
513.637363116149
 10
724.5707011872347
 20
528.8400108316529
 10
724.5707011872347
 20
547.5254950748268
 10
724.5707011872347
 20
566.2118269859761
 10
709.4299948824962
 20
581.4140123371299
 10
690.8192287182941
 20
581.4140123371299
 97
        0
 97
        0
 92
        1
 93
        1
 72
     4
 94
        3
 73
     0
 74
     0
 95
       32
 96
       28
 40
0.0
 40
0.0
 40
0.0
 40
0.0
 40
1.0
 40
1.0
 40
1.0
 40
2.0
 40
2.0
 40
2.0
 40
3.0
 40
3.0
 40
3.0
 40
4.0
 40
4.0
 40
4.0
 40
5.0
 40
5.0
 40
5.0
 40
6.0
 40
6.0
 40
6.0
 40
7.0
 40
7.0
 40
7.0
 40
8.0
 40
8.0
 40
8.0
 40
9.0
 40
9.0
 40
9.0
 40
9.0
 10
691.855340990379
 20
515.7357728946773
 10
691.855340990379
 20
515.7357728946773
 10
691.855340990379
 20
521.8768499559478
 10
691.855340990379
 20
521.8768499559478
 10
705.4773961751489
 20
522.4253065480077
 10
716.3921847930659
 20
533.7173998877313
 10
716.3921847930659
 20
547.5254950748268
 10
716.3921847930659
 20
561.6833072441749
 10
704.9202933697429
 20
573.2013272174904
 10
690.8192287182941
 20
573.2013272174904
 10
690.2470682472205
 20
573.2013272174904
 10
689.7832705676599
 20
572.7375295379295
 10
689.7832705676599
 20
572.1652149454057
 10
689.7832705676599
 20
572.1652149454057
 10
689.7832705676599
 20
515.7357728946773
 10
689.7832705676599
 20
515.7357728946773
 10
672.7933380447932
 20
516.2881441715681
 10
659.1392255984181
 20
530.330796793457
 10
659.1392255984181
 20
547.5254950748268
 10
659.1392255984181
 20
565.0691551433441
 10
673.3509032145494
 20
579.3419419144107
 10
690.8192287182941
 20
579.3419419144107
 10
708.2873384520088
 20
579.3419419144107
 10
722.4986461766607
 20
565.0691551433441
 10
722.4986461766607
 20
547.5254950748268
 10
722.4986461766607
 20
530.330796793457
 10
708.8447495003154
 20
516.2881441715681
 10
691.855340990379
 20
515.7357728946773
 97
        0
 97
        0
 92
        1
 93
        1
 72
     4
 94
        3
 73
     0
 74
     0
 95
       14
 96
       10
 40
0.0
 40
0.0
 40
0.0
 40
0.0
 40
1.0
 40
1.0
 40
1.0
 40
2.0
 40
2.0
 40
2.0
 40
3.0
 40
3.0
 40
3.0
 40
3.0
 10
691.855340990379
 20
523.9490590879722
 10
691.855340990379
 20
523.9490590879722
 10
691.855340990379
 20
571.1026246082068
 10
691.855340990379
 20
571.1026246082068
 10
704.3344315017621
 20
570.5558171156622
 10
714.3201143703467
 20
560.1917506751203
 10
714.3201143703467
 20
547.5254950748268
 10
714.3201143703467
 20
534.8600717303634
 10
704.3344315017621
 20
524.4957124590666
 10
691.855340990379
 20
523.9490590879722
 97
        0
 97
        0
 75
     2
 76
     1
 98
        0
450
        0
451
        0
460
0.0
461
0.0
452
        1
462
0.0
453
        0
470

  0
SPLINE
  5
3D4
330
3CD
100
AcDbEntity
  8
0
370
     0
100
AcDbSpline
210
0.0
220
0.0
230
1.0
 70
     9
 71
     3
 72
   101
 73
    97
 74
     0
 42
0.000000001
 43
0.0000000001
 40
0.0
 40
0.0
 40
0.0
 40
0.0
 40
1.0
 40
1.0
 40
1.0
 40
2.0
 40
2.0
 40
2.0
 40
3.0
 40
3.0
 40
3.0
 40
4.0
 40
4.0
 40
4.0
 40
5.0
 40
5.0
 40
5.0
 40
6.0
 40
6.0
 40
6.0
 40
7.0
 40
7.0
 40
7.0
 40
8.0
 40
8.0
 40
8.0
 40
9.0
 40
9.0
 40
9.0
 40
10.0
 40
10.0
 40
10.0
 40
11.0
 40
11.0
 40
11.0
 40
12.0
 40
12.0
 40
12.0
 40
13.0
 40
13.0
 40
13.0
 40
14.0
 40
14.0
 40
14.0
 40
15.0
 40
15.0
 40
15.0
 40
16.0
 40
16.0
 40
16.0
 40
17.0
 40
17.0
 40
17.0
 40
18.0
 40
18.0
 40
18.0
 40
19.0
 40
19.0
 40
19.0
 40
20.0
 40
20.0
 40
20.0
 40
21.0
 40
21.0
 40
21.0
 40
22.0
 40
22.0
 40
22.0
 40
23.0
 40
23.0
 40
23.0
 40
24.0
 40
24.0
 40
24.0
 40
25.0
 40
25.0
 40
25.0
 40
26.0
 40
26.0
 40
26.0
 40
27.0
 40
27.0
 40
27.0
 40
28.0
 40
28.0
 40
28.0
 40
29.0
 40
29.0
 40
29.0
 40
30.0
 40
30.0
 40
30.0
 40
31.0
 40
31.0
 40
31.0
 40
32.0
 40
32.0
 40
32.0
 40
32.0
 10
748.3802088781049
 20
552.7137779198961
 30
0.0
 10
748.3802088781049
 20
561.6095447181926
 30
0.0
 10
748.3802088781049
 20
563.2062275283092
 30
0.0
 10
748.2661220159382
 20
565.0310100844627
 30
0.0
 10
748.1520362326216
 20
566.9698579257802
 30
0.0
 10
747.6958433677692
 20
567.8822569099297
 30
0.0
 10
745.8141083121878
 20
568.281400641205
 30
0.0
 10
745.357908820113
 20
568.3954813385136
 30
0.0
 10
744.3884848994541
 20
568.4524600385881
 30
0.0
 10
743.8752450587251
 20
568.4524600385881
 30
0.0
 10
743.6471453126877
 20
568.4524600385881
 30
0.0
 10
743.4190455666506
 20
568.5665407358966
 30
0.0
 10
743.4190455666506
 20
568.7946404819339
 30
0.0
 10
743.4190455666506
 20
569.1367438645547
 30
0.0
 10
743.7041856613423
 20
569.2508245618637
 30
0.0
 10
744.3314291386549
 20
569.2509016225886
 30
0.0
 10
746.8975420342882
 20
569.2509016225886
 30
0.0
 10
750.3189858235551
 20
569.0798576373508
 30
0.0
 10
750.7751853156299
 20
569.0798576373508
 30
0.0
 10
752.0297493309803
 20
569.0798576373508
 30
0.0
 10
755.3371185877968
 20
569.2509016225886
 30
0.0
 10
757.9602656672258
 20
569.2508245618637
 30
0.0
 10
765.0882435923461
 20
569.2508245618637
 30
0.0
 10
767.654350258296
 20
566.8557772284716
 30
0.0
 10
768.5667338072517
 20
566.0004340051216
 30
0.0
 10
769.8212977909093
 20
564.8029103384255
 30
0.0
 10
771.4179034999667
 20
562.2368036076505
 30
0.0
 10
771.4179034999667
 20
559.2145744455256
 30
0.0
 10
771.4179034999667
 20
551.1170951097799
 30
0.0
 10
765.4873873135382
 20
545.6428553263338
 30
0.0
 10
757.389985477843
 20
545.6428553263338
 30
0.0
 10
757.1048453831512
 20
545.6428553263338
 30
0.0
 10
756.4776019058385
 20
545.6428553263338
 30
0.0
 10
756.1924618111467
 20
545.6997415535379
 30
0.0
 10
755.9073217164549
 20
545.6997415535379
 30
0.0
 10
755.5652183338341
 20
545.8138376629916
 30
0.0
 10
755.5652183338341
 20
546.0989006969583
 30
0.0
 10
755.5652183338341
 20
546.5552388983383
 30
0.0
 10
755.9073217164549
 20
546.6121405376874
 30
0.0
 10
757.1048453831512
 20
546.6121405376874
 30
0.0
 10
762.6362179881217
 20
546.6121405376874
 30
0.0
 10
766.9700510374707
 20
550.6609110298503
 30
0.0
 10
766.9700510374707
 20
555.9071281279841
 30
0.0
 10
766.9700510374707
 20
557.7889510327922
 30
0.0
 10
766.7990070565537
 20
561.6095447181926
 30
0.0
 10
763.7767009100537
 20
564.6888912896967
 30
0.0
 10
760.7543950833137
 20
567.7681608004758
 30
0.0
 10
757.2759047805342
 20
567.5400610544386
 30
0.0
 10
755.9643620651095
 20
567.5400610544386
 30
0.0
 10
754.9949381444506
 20
567.5400610544386
 30
0.0
 10
754.0255912845171
 20
567.4260574178547
 30
0.0
 10
753.5123514437881
 20
567.1979576718174
 30
0.0
 10
753.1701710004417
 20
567.0838769745089
 30
0.0
 10
753.0561519517134
 20
566.6847178310884
 30
0.0
 10
753.0561519517134
 20
566.1145147024301
 30
0.0
 10
753.0561519517134
 20
566.1145147024301
 30
0.0
 10
753.0561519517134
 20
542.6775278035584
 30
0.0
 10
753.0561519517134
 20
542.6775278035584
 30
0.0
 10
753.0561519517134
 20
537.203195547242
 30
0.0
 10
753.0561519517134
 20
532.6983026237297
 30
0.0
 10
753.341292046405
 20
530.3032552903373
 30
0.0
 10
753.5123514437881
 20
528.6496091922916
 30
0.0
 10
753.8545318871339
 20
527.3951222376663
 30
0.0
 10
755.5652183338341
 20
527.1669454309042
 30
0.0
 10
756.3635212085298
 20
527.0528647335952
 30
0.0
 10
757.6180852238802
 20
526.9387686241417
 30
0.0
 10
758.1313250646092
 20
526.9387686241417
 30
0.0
 10
758.4734284472299
 20
526.9387686241417
 30
0.0
 10
758.587524556684
 20
526.7678016996288
 30
0.0
 10
758.587524556684
 20
526.5968193629706
 30
0.0
 10
758.587524556684
 20
526.3116022075537
 30
0.0
 10
758.3023844619922
 20
526.1404657494457
 30
0.0
 10
757.6751255725345
 20
526.1404657494457
 30
0.0
 10
754.538815713101
 20
526.1404657494457
 30
0.0
 10
750.9463217737379
 20
526.3116022075537
 30
0.0
 10
750.6611816790463
 20
526.3116022075537
 30
0.0
 10
750.4901222816632
 20
526.3116022075537
 30
0.0
 10
746.8975420342882
 20
526.1404657494457
 30
0.0
 10
745.1868494227301
 20
526.1404657494457
 30
0.0
 10
744.5595288846922
 20
526.1404657494457
 30
0.0
 10
744.2744658507257
 20
526.2545618588996
 30
0.0
 10
744.2744658507257
 20
526.5968193629706
 30
0.0
 10
744.2744658507257
 20
526.7678016996288
 30
0.0
 10
744.3884848994541
 20
526.9387686241417
 30
0.0
 10
744.7306653428004
 20
526.9387686241417
 30
0.0
 10
745.2438281228044
 20
526.9387686241417
 30
0.0
 10
745.9281119487711
 20
527.0528647335952
 30
0.0
 10
746.4413517895004
 20
527.1669454309042
 30
0.0
 10
747.581832025113
 20
527.3951222376663
 30
0.0
 10
747.8669721198047
 20
528.6496091922916
 30
0.0
 10
748.0950684751702
 20
530.3032552903373
 30
0.0
 10
748.3802088781049
 20
532.6983026237297
 30
0.0
 10
748.3802088781049
 20
537.203195547242
 30
0.0
 10
748.3802088781049
 20
542.6775278035584
 30
0.0
 10
748.3802088781049
 20
542.6775278035584
 30
0.0
 10
748.3802088781049
 20
552.7137779198961
 30
0.0
 10
748.3802088781049
 20
552.7137779198961
 30
0.0
  0
HATCH
  5
3D5
330
3CD
100
AcDbEntity
  8
0
100
AcDbHatch
 10
0.0
 20
0.0
 30
0.0
210
0.0
220
0.0
230
1.0
  2
SOLID
 70
     1
 71
     0
 91
        1
 92
        1
 93
        1
 72
     4
 94
        3
 73
     0
 74
     0
 95
      101
 96
       97
 40
0.0
 40
0.0
 40
0.0
 40
0.0
 40
1.0
 40
1.0
 40
1.0
 40
2.0
 40
2.0
 40
2.0
 40
3.0
 40
3.0
 40
3.0
 40
4.0
 40
4.0
 40
4.0
 40
5.0
 40
5.0
 40
5.0
 40
6.0
 40
6.0
 40
6.0
 40
7.0
 40
7.0
 40
7.0
 40
8.0
 40
8.0
 40
8.0
 40
9.0
 40
9.0
 40
9.0
 40
10.0
 40
10.0
 40
10.0
 40
11.0
 40
11.0
 40
11.0
 40
12.0
 40
12.0
 40
12.0
 40
13.0
 40
13.0
 40
13.0
 40
14.0
 40
14.0
 40
14.0
 40
15.0
 40
15.0
 40
15.0
 40
16.0
 40
16.0
 40
16.0
 40
17.0
 40
17.0
 40
17.0
 40
18.0
 40
18.0
 40
18.0
 40
19.0
 40
19.0
 40
19.0
 40
20.0
 40
20.0
 40
20.0
 40
21.0
 40
21.0
 40
21.0
 40
22.0
 40
22.0
 40
22.0
 40
23.0
 40
23.0
 40
23.0
 40
24.0
 40
24.0
 40
24.0
 40
25.0
 40
25.0
 40
25.0
 40
26.0
 40
26.0
 40
26.0
 40
27.0
 40
27.0
 40
27.0
 40
28.0
 40
28.0
 40
28.0
 40
29.0
 40
29.0
 40
29.0
 40
30.0
 40
30.0
 40
30.0
 40
31.0
 40
31.0
 40
31.0
 40
32.0
 40
32.0
 40
32.0
 40
32.0
 10
748.3802088781049
 20
552.7137779198961
 10
748.3802088781049
 20
561.6095447181926
 10
748.3802088781049
 20
563.2062275283092
 10
748.2661220159382
 20
565.0310100844627
 10
748.1520362326216
 20
566.9698579257802
 10
747.6958433677692
 20
567.8822569099297
 10
745.8141083121878
 20
568.281400641205
 10
745.357908820113
 20
568.3954813385136
 10
744.3884848994541
 20
568.4524600385881
 10
743.8752450587251
 20
568.4524600385881
 10
743.6471453126877
 20
568.4524600385881
 10
743.4190455666506
 20
568.5665407358966
 10
743.4190455666506
 20
568.7946404819339
 10
743.4190455666506
 20
569.1367438645547
 10
743.7041856613423
 20
569.2508245618637
 10
744.3314291386549
 20
569.2509016225886
 10
746.8975420342882
 20
569.2509016225886
 10
750.3189858235551
 20
569.0798576373508
 10
750.7751853156299
 20
569.0798576373508
 10
752.0297493309803
 20
569.0798576373508
 10
755.3371185877968
 20
569.2509016225886
 10
757.9602656672258
 20
569.2508245618637
 10
765.0882435923461
 20
569.2508245618637
 10
767.654350258296
 20
566.8557772284716
 10
768.5667338072517
 20
566.0004340051216
 10
769.8212977909093
 20
564.8029103384255
 10
771.4179034999667
 20
562.2368036076505
 10
771.4179034999667
 20
559.2145744455256
 10
771.4179034999667
 20
551.1170951097799
 10
765.4873873135382
 20
545.6428553263338
 10
757.389985477843
 20
545.6428553263338
 10
757.1048453831512
 20
545.6428553263338
 10
756.4776019058385
 20
545.6428553263338
 10
756.1924618111467
 20
545.6997415535379
 10
755.9073217164549
 20
545.6997415535379
 10
755.5652183338341
 20
545.8138376629916
 10
755.5652183338341
 20
546.0989006969583
 10
755.5652183338341
 20
546.5552388983383
 10
755.9073217164549
 20
546.6121405376874
 10
757.1048453831512
 20
546.6121405376874
 10
762.6362179881217
 20
546.6121405376874
 10
766.9700510374707
 20
550.6609110298503
 10
766.9700510374707
 20
555.9071281279841
 10
766.9700510374707
 20
557.7889510327922
 10
766.7990070565537
 20
561.6095447181926
 10
763.7767009100537
 20
564.6888912896967
 10
760.7543950833137
 20
567.7681608004758
 10
757.2759047805342
 20
567.5400610544386
 10
755.9643620651095
 20
567.5400610544386
 10
754.9949381444506
 20
567.5400610544386
 10
754.0255912845171
 20
567.4260574178547
 10
753.5123514437881
 20
567.1979576718174
 10
753.1701710004417
 20
567.0838769745089
 10
753.0561519517134
 20
566.6847178310884
 10
753.0561519517134
 20
566.1145147024301
 10
753.0561519517134
 20
566.1145147024301
 10
753.0561519517134
 20
542.6775278035584
 10
753.0561519517134
 20
542.6775278035584
 10
753.0561519517134
 20
537.203195547242
 10
753.0561519517134
 20
532.6983026237297
 10
753.341292046405
 20
530.3032552903373
 10
753.5123514437881
 20
528.6496091922916
 10
753.8545318871339
 20
527.3951222376663
 10
755.5652183338341
 20
527.1669454309042
 10
756.3635212085298
 20
527.0528647335952
 10
757.6180852238802
 20
526.9387686241417
 10
758.1313250646092
 20
526.9387686241417
 10
758.4734284472299
 20
526.9387686241417
 10
758.587524556684
 20
526.7678016996288
 10
758.587524556684
 20
526.5968193629706
 10
758.587524556684
 20
526.3116022075537
 10
758.3023844619922
 20
526.1404657494457
 10
757.6751255725345
 20
526.1404657494457
 10
754.538815713101
 20
526.1404657494457
 10
750.9463217737379
 20
526.3116022075537
 10
750.6611816790463
 20
526.3116022075537
 10
750.4901222816632
 20
526.3116022075537
 10
746.8975420342882
 20
526.1404657494457
 10
745.1868494227301
 20
526.1404657494457
 10
744.5595288846922
 20
526.1404657494457
 10
744.2744658507257
 20
526.2545618588996
 10
744.2744658507257
 20
526.5968193629706
 10
744.2744658507257
 20
526.7678016996288
 10
744.3884848994541
 20
526.9387686241417
 10
744.7306653428004
 20
526.9387686241417
 10
745.2438281228044
 20
526.9387686241417
 10
745.9281119487711
 20
527.0528647335952
 10
746.4413517895004
 20
527.1669454309042
 10
747.581832025113
 20
527.3951222376663
 10
747.8669721198047
 20
528.6496091922916
 10
748.0950684751702
 20
530.3032552903373
 10
748.3802088781049
 20
532.6983026237297
 10
748.3802088781049
 20
537.203195547242
 10
748.3802088781049
 20
542.6775278035584
 10
748.3802088781049
 20
542.6775278035584
 10
748.3802088781049
 20
552.7137779198961
 10
748.3802088781049
 20
552.7137779198961
 97
        0
 97
        0
 75
     2
 76
     1
 98
        0
450
        0
451
        0
460
0.0
461
0.0
452
        1
462
0.0
453
        0
470

  0
SPLINE
  5
3D6
330
3CD
100
AcDbEntity
  8
0
370
     0
100
AcDbSpline
210
0.0
220
0.0
230
1.0
 70
     9
 71
     3
 72
   158
 73
   154
 74
     0
 42
0.000000001
 43
0.0000000001
 40
0.0
 40
0.0
 40
0.0
 40
0.0
 40
1.0
 40
1.0
 40
1.0
 40
2.0
 40
2.0
 40
2.0
 40
3.0
 40
3.0
 40
3.0
 40
4.0
 40
4.0
 40
4.0
 40
5.0
 40
5.0
 40
5.0
 40
6.0
 40
6.0
 40
6.0
 40
7.0
 40
7.0
 40
7.0
 40
8.0
 40
8.0
 40
8.0
 40
9.0
 40
9.0
 40
9.0
 40
10.0
 40
10.0
 40
10.0
 40
11.0
 40
11.0
 40
11.0
 40
12.0
 40
12.0
 40
12.0
 40
13.0
 40
13.0
 40
13.0
 40
14.0
 40
14.0
 40
14.0
 40
15.0
 40
15.0
 40
15.0
 40
16.0
 40
16.0
 40
16.0
 40
17.0
 40
17.0
 40
17.0
 40
18.0
 40
18.0
 40
18.0
 40
19.0
 40
19.0
 40
19.0
 40
20.0
 40
20.0
 40
20.0
 40
21.0
 40
21.0
 40
21.0
 40
22.0
 40
22.0
 40
22.0
 40
23.0
 40
23.0
 40
23.0
 40
24.0
 40
24.0
 40
24.0
 40
25.0
 40
25.0
 40
25.0
 40
26.0
 40
26.0
 40
26.0
 40
27.0
 40
27.0
 40
27.0
 40
28.0
 40
28.0
 40
28.0
 40
29.0
 40
29.0
 40
29.0
 40
30.0
 40
30.0
 40
30.0
 40
31.0
 40
31.0
 40
31.0
 40
32.0
 40
32.0
 40
32.0
 40
33.0
 40
33.0
 40
33.0
 40
34.0
 40
34.0
 40
34.0
 40
35.0
 40
35.0
 40
35.0
 40
36.0
 40
36.0
 40
36.0
 40
37.0
 40
37.0
 40
37.0
 40
38.0
 40
38.0
 40
38.0
 40
39.0
 40
39.0
 40
39.0
 40
40.0
 40
40.0
 40
40.0
 40
41.0
 40
41.0
 40
41.0
 40
42.0
 40
42.0
 40
42.0
 40
43.0
 40
43.0
 40
43.0
 40
44.0
 40
44.0
 40
44.0
 40
45.0
 40
45.0
 40
45.0
 40
46.0
 40
46.0
 40
46.0
 40
47.0
 40
47.0
 40
47.0
 40
48.0
 40
48.0
 40
48.0
 40
49.0
 40
49.0
 40
49.0
 40
50.0
 40
50.0
 40
50.0
 40
51.0
 40
51.0
 40
51.0
 40
51.0
 10
785.1795778954573
 20
548.7791651857673
 30
0.0
 10
785.1795778954573
 20
556.3062872714043
 30
0.0
 10
785.1795778954573
 20
557.6748703354834
 30
0.0
 10
785.0655579128174
 20
559.2145744455256
 30
0.0
 10
784.9514781494201
 20
560.8682205435711
 30
0.0
 10
784.6663371309022
 20
561.6666004789919
 30
0.0
 10
783.0126910746312
 20
561.8946848128842
 30
0.0
 10
782.6135319412942
 20
561.9517405736838
 30
0.0
 10
781.7581270909736
 20
562.0087809223381
 30
0.0
 10
781.3019276104236
 20
562.0087809223381
 30
0.0
 10
781.1308682173619
 20
562.0087809223381
 30
0.0
 10
780.9027684770867
 20
562.2368036076505
 30
0.0
 10
780.9027684770867
 20
562.4079246536132
 30
0.0
 10
780.9027684770867
 20
562.6929876875798
 30
0.0
 10
781.1308682173619
 20
562.8070837970336
 30
0.0
 10
781.7011483923387
 20
562.8070837970336
 30
0.0
 10
783.9821149708001
 20
562.8070837970336
 30
0.0
 10
787.2324437968518
 20
562.6929876875798
 30
0.0
 10
787.5175838843404
 20
562.6929876875798
 30
0.0
 10
787.8596872583192
 20
562.6929876875798
 30
0.0
 10
798.3521366016702
 20
562.6360243996506
 30
0.0
 10
799.4926969516241
 20
562.6929876875798
 30
0.0
 10
800.4620591992146
 20
562.7500280362345
 30
0.0
 10
801.3744427481702
 20
562.9211644943421
 30
0.0
 10
801.7736635300854
 20
562.9781277822717
 30
0.0
 10
802.0016862096374
 20
563.0351681309257
 30
0.0
 10
802.2298630106357
 20
563.2062275283092
 30
0.0
 10
802.4578856901875
 20
563.2062275283092
 30
0.0
 10
802.6290067318276
 20
563.2062275283092
 30
0.0
 10
802.6860470790412
 20
562.9781277822717
 30
0.0
 10
802.6860470790412
 20
562.7500280362345
 30
0.0
 10
802.6860470790412
 20
562.4079246536132
 30
0.0
 10
802.4009069915527
 20
561.8376444642299
 30
0.0
 10
802.2868262971256
 20
560.4690614001509
 30
0.0
 10
802.2298630106357
 20
560.0128773202214
 30
0.0
 10
802.1157669040642
 20
557.8459913814466
 30
0.0
 10
802.0016862096374
 20
557.2757111920632
 30
0.0
 10
801.9447229231472
 20
557.0476114460258
 30
0.0
 10
801.7736635300854
 20
556.7624713513342
 30
0.0
 10
801.5454867290872
 20
556.7624713513342
 30
0.0
 10
801.260423702322
 20
556.7624713513342
 30
0.0
 10
801.1463430078952
 20
556.9906481580964
 30
0.0
 10
801.1463430078952
 20
557.3898073015168
 30
0.0
 10
801.1463430078952
 20
557.7319106841379
 30
0.0
 10
801.0893026606819
 20
558.5302906195586
 30
0.0
 10
800.8612813140747
 20
559.1004937482169
 30
0.0
 10
800.519099546428
 20
559.8988582714926
 30
0.0
 10
800.0058597186646
 20
560.2409770662586
 30
0.0
 10
797.2686936596533
 20
560.5831575096046
 30
0.0
 10
796.4133504579107
 20
560.6971611461882
 30
0.0
 10
790.5968533173306
 20
560.7542014948427
 30
0.0
 10
790.0266502030769
 20
560.7542014948427
 30
0.0
 10
789.7985504628018
 20
560.7542014948427
 30
0.0
 10
789.7415101155884
 20
560.5831575096046
 30
0.0
 10
789.7415101155884
 20
560.2409770662586
 30
0.0
 10
789.7415101155884
 20
560.2409770662586
 30
0.0
 10
789.7415101155884
 20
547.0684787390671
 30
0.0
 10
789.7415101155884
 20
547.0684787390671
 30
0.0
 10
789.7415101155884
 20
546.7262212349961
 30
0.0
 10
789.7415101155884
 20
546.5552388983383
 30
0.0
 10
790.0266502030769
 20
546.5552388983383
 30
0.0
 10
790.653893664544
 20
546.5552388983383
 30
0.0
 10
797.2686936596533
 20
546.5552388983383
 30
0.0
 10
798.4091769488838
 20
546.6693350077918
 30
0.0
 10
799.6067005853277
 20
546.7832615836505
 30
0.0
 10
800.3480401533662
 20
546.8403019323049
 30
0.0
 10
800.8612813140747
 20
547.3535417730337
 30
0.0
 10
801.2033833551086
 20
547.6956451556548
 30
0.0
 10
801.4314830953836
 20
547.9807852503463
 30
0.0
 10
801.6025424884452
 20
547.9807852503463
 30
0.0
 10
801.7736635300854
 20
547.9807852503463
 30
0.0
 10
801.8876825759337
 20
547.8667816137629
 30
0.0
 10
801.8876825759337
 20
547.5816415190711
 30
0.0
 10
801.8876825759337
 20
547.2965014243794
 30
0.0
 10
801.6025424884452
 20
546.4981985496838
 30
0.0
 10
801.4885234425971
 20
544.9014540909875
 30
0.0
 10
801.3744427481702
 20
543.9321688796337
 30
0.0
 10
801.260423702322
 20
542.1073863234799
 30
0.0
 10
801.260423702322
 20
541.7651288194089
 30
0.0
 10
801.260423702322
 20
541.3659850881336
 30
0.0
 10
801.1463430078952
 20
540.8527452474046
 30
0.0
 10
800.8042396339165
 20
540.8527452474046
 30
0.0
 10
800.5761398936412
 20
540.8527452474046
 30
0.0
 10
800.4620591992146
 20
541.0238817055126
 30
0.0
 10
800.4620591992146
 20
541.3089447394792
 30
0.0
 10
800.4620591992146
 20
541.7651288194089
 30
0.0
 10
800.4620591992146
 20
542.278368660138
 30
0.0
 10
800.2339594589395
 20
542.9056891981757
 30
0.0
 10
800.0629000658776
 20
543.5899113755628
 30
0.0
 10
799.6067005853277
 20
544.1601915649458
 30
0.0
 10
797.6679298537129
 20
544.3882142502582
 30
0.0
 10
796.2993468242071
 20
544.5593352962212
 30
0.0
 10
790.9390337520325
 20
544.6163756448757
 30
0.0
 10
790.0836905502902
 20
544.6163756448757
 30
0.0
 10
789.7985504628018
 20
544.6163756448757
 30
0.0
 10
789.7415101155884
 20
544.4452545989125
 30
0.0
 10
789.7415101155884
 20
544.2741181408043
 30
0.0
 10
789.7415101155884
 20
544.2741181408043
 30
0.0
 10
789.7415101155884
 20
540.2254247093667
 30
0.0
 10
789.7415101155884
 20
540.2254247093667
 30
0.0
 10
789.7415101155884
 20
538.571778611321
 30
0.0
 10
789.6844697683749
 20
532.9263253090418
 30
0.0
 10
789.7415101155884
 20
531.9570555098331
 30
0.0
 10
789.8555908100153
 20
528.7066495409461
 30
0.0
 10
790.7679743589708
 20
528.0793290029081
 30
0.0
 10
795.7290666492301
 20
528.0793290029081
 30
0.0
 10
797.040593919378
 20
528.0793290029081
 30
0.0
 10
799.4356579013413
 20
528.0793290029081
 30
0.0
 10
800.7471838745582
 20
528.5925688436374
 30
0.0
 10
802.0587265568506
 20
529.1628490330207
 30
0.0
 10
802.7430257776758
 20
530.0181922563708
 30
0.0
 10
803.0282289014294
 20
531.9570555098331
 30
0.0
 10
803.1422465595911
 20
532.5271815777666
 30
0.0
 10
803.2563286474667
 20
532.6983026237297
 30
0.0
 10
803.5413902807832
 20
532.6983026237297
 30
0.0
 10
803.8265303682717
 20
532.6983026237297
 30
0.0
 10
803.8835707154849
 20
532.2991588924543
 30
0.0
 10
803.8835090669067
 20
531.9570555098331
 30
0.0
 10
803.8835090669067
 20
531.614798005762
 30
0.0
 10
803.48434993357
 20
528.3075058096708
 30
0.0
 10
803.1992098460815
 20
527.2810261282127
 30
0.0
 10
802.8571064721027
 20
526.0263850521372
 30
0.0
 10
802.3438666443393
 20
526.0263850521372
 30
0.0
 10
800.4050818219997
 20
526.0263850521372
 30
0.0
 10
796.6414501981859
 20
526.0263850521372
 30
0.0
 10
793.7332401582573
 20
526.1404657494457
 30
0.0
 10
791.6803579079265
 20
526.1975215102451
 30
0.0
 10
789.5704507225267
 20
526.3116022075537
 30
0.0
 10
788.2589080402342
 20
526.3116022075537
 30
0.0
 10
787.5175838843404
 20
526.3116022075537
 30
0.0
 10
787.4034877777693
 20
526.3116022075537
 30
0.0
 10
786.434140942323
 20
526.3116022075537
 30
0.0
 10
785.3506980003059
 20
526.2545618588996
 30
0.0
 10
784.3812741041367
 20
526.1975215102451
 30
0.0
 10
783.2407908149061
 20
526.1404657494457
 30
0.0
 10
782.4424108996542
 20
526.1404657494457
 30
0.0
 10
781.9291710718905
 20
526.1404657494457
 30
0.0
 10
781.6441080451252
 20
526.2545618588996
 30
0.0
 10
781.6441080451252
 20
526.5396248928664
 30
0.0
 10
781.6441080451252
 20
526.7107459388292
 30
0.0
 10
781.7581270909736
 20
526.9387686241417
 30
0.0
 10
782.0432671784621
 20
526.9387686241417
 30
0.0
 10
782.4994512468675
 20
526.9387686241417
 30
0.0
 10
783.1266947083348
 20
527.1099050822497
 30
0.0
 10
783.5828941888848
 20
527.1669454309042
 30
0.0
 10
784.5523180850539
 20
527.3380664768668
 30
0.0
 10
784.6663371309022
 20
528.3075058096708
 30
0.0
 10
784.8945139319002
 20
529.7331292224042
 30
0.0
 10
785.1795778954573
 20
531.7288787030705
 30
0.0
 10
785.1795778954573
 20
535.5495494491964
 30
0.0
 10
785.1795778954573
 20
540.2254247093667
 30
0.0
 10
785.1795778954573
 20
540.2254247093667
 30
0.0
 10
785.1795778954573
 20
548.7791651857673
 30
0.0
 10
785.1795778954573
 20
548.7791651857673
 30
0.0
  0
HATCH
  5
3D7
330
3CD
100
AcDbEntity
  8
0
100
AcDbHatch
 10
0.0
 20
0.0
 30
0.0
210
0.0
220
0.0
230
1.0
  2
SOLID
 70
     1
 71
     0
 91
        1
 92
        1
 93
        1
 72
     4
 94
        3
 73
     0
 74
     0
 95
      158
 96
      154
 40
0.0
 40
0.0
 40
0.0
 40
0.0
 40
1.0
 40
1.0
 40
1.0
 40
2.0
 40
2.0
 40
2.0
 40
3.0
 40
3.0
 40
3.0
 40
4.0
 40
4.0
 40
4.0
 40
5.0
 40
5.0
 40
5.0
 40
6.0
 40
6.0
 40
6.0
 40
7.0
 40
7.0
 40
7.0
 40
8.0
 40
8.0
 40
8.0
 40
9.0
 40
9.0
 40
9.0
 40
10.0
 40
10.0
 40
10.0
 40
11.0
 40
11.0
 40
11.0
 40
12.0
 40
12.0
 40
12.0
 40
13.0
 40
13.0
 40
13.0
 40
14.0
 40
14.0
 40
14.0
 40
15.0
 40
15.0
 40
15.0
 40
16.0
 40
16.0
 40
16.0
 40
17.0
 40
17.0
 40
17.0
 40
18.0
 40
18.0
 40
18.0
 40
19.0
 40
19.0
 40
19.0
 40
20.0
 40
20.0
 40
20.0
 40
21.0
 40
21.0
 40
21.0
 40
22.0
 40
22.0
 40
22.0
 40
23.0
 40
23.0
 40
23.0
 40
24.0
 40
24.0
 40
24.0
 40
25.0
 40
25.0
 40
25.0
 40
26.0
 40
26.0
 40
26.0
 40
27.0
 40
27.0
 40
27.0
 40
28.0
 40
28.0
 40
28.0
 40
29.0
 40
29.0
 40
29.0
 40
30.0
 40
30.0
 40
30.0
 40
31.0
 40
31.0
 40
31.0
 40
32.0
 40
32.0
 40
32.0
 40
33.0
 40
33.0
 40
33.0
 40
34.0
 40
34.0
 40
34.0
 40
35.0
 40
35.0
 40
35.0
 40
36.0
 40
36.0
 40
36.0
 40
37.0
 40
37.0
 40
37.0
 40
38.0
 40
38.0
 40
38.0
 40
39.0
 40
39.0
 40
39.0
 40
40.0
 40
40.0
 40
40.0
 40
41.0
 40
41.0
 40
41.0
 40
42.0
 40
42.0
 40
42.0
 40
43.0
 40
43.0
 40
43.0
 40
44.0
 40
44.0
 40
44.0
 40
45.0
 40
45.0
 40
45.0
 40
46.0
 40
46.0
 40
46.0
 40
47.0
 40
47.0
 40
47.0
 40
48.0
 40
48.0
 40
48.0
 40
49.0
 40
49.0
 40
49.0
 40
50.0
 40
50.0
 40
50.0
 40
51.0
 40
51.0
 40
51.0
 40
51.0
 10
785.1795778954573
 20
548.7791651857673
 10
785.1795778954573
 20
556.3062872714043
 10
785.1795778954573
 20
557.6748703354834
 10
785.0655579128174
 20
559.2145744455256
 10
784.9514781494201
 20
560.8682205435711
 10
784.6663371309022
 20
561.6666004789919
 10
783.0126910746312
 20
561.8946848128842
 10
782.6135319412942
 20
561.9517405736838
 10
781.7581270909736
 20
562.0087809223381
 10
781.3019276104236
 20
562.0087809223381
 10
781.1308682173619
 20
562.0087809223381
 10
780.9027684770867
 20
562.2368036076505
 10
780.9027684770867
 20
562.4079246536132
 10
780.9027684770867
 20
562.6929876875798
 10
781.1308682173619
 20
562.8070837970336
 10
781.7011483923387
 20
562.8070837970336
 10
783.9821149708001
 20
562.8070837970336
 10
787.2324437968518
 20
562.6929876875798
 10
787.5175838843404
 20
562.6929876875798
 10
787.8596872583192
 20
562.6929876875798
 10
798.3521366016702
 20
562.6360243996506
 10
799.4926969516241
 20
562.6929876875798
 10
800.4620591992146
 20
562.7500280362345
 10
801.3744427481702
 20
562.9211644943421
 10
801.7736635300854
 20
562.9781277822717
 10
802.0016862096374
 20
563.0351681309257
 10
802.2298630106357
 20
563.2062275283092
 10
802.4578856901875
 20
563.2062275283092
 10
802.6290067318276
 20
563.2062275283092
 10
802.6860470790412
 20
562.9781277822717
 10
802.6860470790412
 20
562.7500280362345
 10
802.6860470790412
 20
562.4079246536132
 10
802.4009069915527
 20
561.8376444642299
 10
802.2868262971256
 20
560.4690614001509
 10
802.2298630106357
 20
560.0128773202214
 10
802.1157669040642
 20
557.8459913814466
 10
802.0016862096374
 20
557.2757111920632
 10
801.9447229231472
 20
557.0476114460258
 10
801.7736635300854
 20
556.7624713513342
 10
801.5454867290872
 20
556.7624713513342
 10
801.260423702322
 20
556.7624713513342
 10
801.1463430078952
 20
556.9906481580964
 10
801.1463430078952
 20
557.3898073015168
 10
801.1463430078952
 20
557.7319106841379
 10
801.0893026606819
 20
558.5302906195586
 10
800.8612813140747
 20
559.1004937482169
 10
800.519099546428
 20
559.8988582714926
 10
800.0058597186646
 20
560.2409770662586
 10
797.2686936596533
 20
560.5831575096046
 10
796.4133504579107
 20
560.6971611461882
 10
790.5968533173306
 20
560.7542014948427
 10
790.0266502030769
 20
560.7542014948427
 10
789.7985504628018
 20
560.7542014948427
 10
789.7415101155884
 20
560.5831575096046
 10
789.7415101155884
 20
560.2409770662586
 10
789.7415101155884
 20
560.2409770662586
 10
789.7415101155884
 20
547.0684787390671
 10
789.7415101155884
 20
547.0684787390671
 10
789.7415101155884
 20
546.7262212349961
 10
789.7415101155884
 20
546.5552388983383
 10
790.0266502030769
 20
546.5552388983383
 10
790.653893664544
 20
546.5552388983383
 10
797.2686936596533
 20
546.5552388983383
 10
798.4091769488838
 20
546.6693350077918
 10
799.6067005853277
 20
546.7832615836505
 10
800.3480401533662
 20
546.8403019323049
 10
800.8612813140747
 20
547.3535417730337
 10
801.2033833551086
 20
547.6956451556548
 10
801.4314830953836
 20
547.9807852503463
 10
801.6025424884452
 20
547.9807852503463
 10
801.7736635300854
 20
547.9807852503463
 10
801.8876825759337
 20
547.8667816137629
 10
801.8876825759337
 20
547.5816415190711
 10
801.8876825759337
 20
547.2965014243794
 10
801.6025424884452
 20
546.4981985496838
 10
801.4885234425971
 20
544.9014540909875
 10
801.3744427481702
 20
543.9321688796337
 10
801.260423702322
 20
542.1073863234799
 10
801.260423702322
 20
541.7651288194089
 10
801.260423702322
 20
541.3659850881336
 10
801.1463430078952
 20
540.8527452474046
 10
800.8042396339165
 20
540.8527452474046
 10
800.5761398936412
 20
540.8527452474046
 10
800.4620591992146
 20
541.0238817055126
 10
800.4620591992146
 20
541.3089447394792
 10
800.4620591992146
 20
541.7651288194089
 10
800.4620591992146
 20
542.278368660138
 10
800.2339594589395
 20
542.9056891981757
 10
800.0629000658776
 20
543.5899113755628
 10
799.6067005853277
 20
544.1601915649458
 10
797.6679298537129
 20
544.3882142502582
 10
796.2993468242071
 20
544.5593352962212
 10
790.9390337520325
 20
544.6163756448757
 10
790.0836905502902
 20
544.6163756448757
 10
789.7985504628018
 20
544.6163756448757
 10
789.7415101155884
 20
544.4452545989125
 10
789.7415101155884
 20
544.2741181408043
 10
789.7415101155884
 20
544.2741181408043
 10
789.7415101155884
 20
540.2254247093667
 10
789.7415101155884
 20
540.2254247093667
 10
789.7415101155884
 20
538.571778611321
 10
789.6844697683749
 20
532.9263253090418
 10
789.7415101155884
 20
531.9570555098331
 10
789.8555908100153
 20
528.7066495409461
 10
790.7679743589708
 20
528.0793290029081
 10
795.7290666492301
 20
528.0793290029081
 10
797.040593919378
 20
528.0793290029081
 10
799.4356579013413
 20
528.0793290029081
 10
800.7471838745582
 20
528.5925688436374
 10
802.0587265568506
 20
529.1628490330207
 10
802.7430257776758
 20
530.0181922563708
 10
803.0282289014294
 20
531.9570555098331
 10
803.1422465595911
 20
532.5271815777666
 10
803.2563286474667
 20
532.6983026237297
 10
803.5413902807832
 20
532.6983026237297
 10
803.8265303682717
 20
532.6983026237297
 10
803.8835707154849
 20
532.2991588924543
 10
803.8835090669067
 20
531.9570555098331
 10
803.8835090669067
 20
531.614798005762
 10
803.48434993357
 20
528.3075058096708
 10
803.1992098460815
 20
527.2810261282127
 10
802.8571064721027
 20
526.0263850521372
 10
802.3438666443393
 20
526.0263850521372
 10
800.4050818219997
 20
526.0263850521372
 10
796.6414501981859
 20
526.0263850521372
 10
793.7332401582573
 20
526.1404657494457
 10
791.6803579079265
 20
526.1975215102451
 10
789.5704507225267
 20
526.3116022075537
 10
788.2589080402342
 20
526.3116022075537
 10
787.5175838843404
 20
526.3116022075537
 10
787.4034877777693
 20
526.3116022075537
 10
786.434140942323
 20
526.3116022075537
 10
785.3506980003059
 20
526.2545618588996
 10
784.3812741041367
 20
526.1975215102451
 10
783.2407908149061
 20
526.1404657494457
 10
782.4424108996542
 20
526.1404657494457
 10
781.9291710718905
 20
526.1404657494457
 10
781.6441080451252
 20
526.2545618588996
 10
781.6441080451252
 20
526.5396248928664
 10
781.6441080451252
 20
526.7107459388292
 10
781.7581270909736
 20
526.9387686241417
 10
782.0432671784621
 20
526.9387686241417
 10
782.4994512468675
 20
526.9387686241417
 10
783.1266947083348
 20
527.1099050822497
 10
783.5828941888848
 20
527.1669454309042
 10
784.5523180850539
 20
527.3380664768668
 10
784.6663371309022
 20
528.3075058096708
 10
784.8945139319002
 20
529.7331292224042
 10
785.1795778954573
 20
531.7288787030705
 10
785.1795778954573
 20
535.5495494491964
 10
785.1795778954573
 20
540.2254247093667
 10
785.1795778954573
 20
540.2254247093667
 10
785.1795778954573
 20
548.7791651857673
 10
785.1795778954573
 20
548.7791651857673
 97
        0
 97
        0
 75
     2
 76
     1
 98
        0
450
        0
451
        0
460
0.0
461
0.0
452
        1
462
0.0
453
        0
470

  0
SPLINE
  5
3D8
330
3CD
100
AcDbEntity
  8
0
370
     0
100
AcDbSpline
210
0.0
220
0.0
230
1.0
 70
     9
 71
     3
 72
    89
 73
    85
 74
     0
 42
0.000000001
 43
0.0000000001
 40
0.0
 40
0.0
 40
0.0
 40
0.0
 40
1.0
 40
1.0
 40
1.0
 40
2.0
 40
2.0
 40
2.0
 40
3.0
 40
3.0
 40
3.0
 40
4.0
 40
4.0
 40
4.0
 40
5.0
 40
5.0
 40
5.0
 40
6.0
 40
6.0
 40
6.0
 40
7.0
 40
7.0
 40
7.0
 40
8.0
 40
8.0
 40
8.0
 40
9.0
 40
9.0
 40
9.0
 40
10.0
 40
10.0
 40
10.0
 40
11.0
 40
11.0
 40
11.0
 40
12.0
 40
12.0
 40
12.0
 40
13.0
 40
13.0
 40
13.0
 40
14.0
 40
14.0
 40
14.0
 40
15.0
 40
15.0
 40
15.0
 40
16.0
 40
16.0
 40
16.0
 40
17.0
 40
17.0
 40
17.0
 40
18.0
 40
18.0
 40
18.0
 40
19.0
 40
19.0
 40
19.0
 40
20.0
 40
20.0
 40
20.0
 40
21.0
 40
21.0
 40
21.0
 40
22.0
 40
22.0
 40
22.0
 40
23.0
 40
23.0
 40
23.0
 40
24.0
 40
24.0
 40
24.0
 40
25.0
 40
25.0
 40
25.0
 40
26.0
 40
26.0
 40
26.0
 40
27.0
 40
27.0
 40
27.0
 40
28.0
 40
28.0
 40
28.0
 40
28.0
 10
828.4025820470018
 20
561.8376444642299
 30
0.0
 10
829.0297638598906
 20
563.4343272743465
 30
0.0
 10
829.2579252487442
 20
563.719467369038
 30
0.0
 10
829.600182744169
 20
563.719467369038
 30
0.0
 10
830.1132684504864
 20
563.719467369038
 30
0.0
 10
830.2844049042711
 20
563.0351681309257
 30
0.0
 10
830.7976447320346
 20
561.9517405736838
 30
0.0
 10
831.7100282809903
 20
559.8988582714926
 30
0.0
 10
839.7503745920952
 20
539.8833213267456
 30
0.0
 10
842.8296440250855
 20
532.5271815777666
 30
0.0
 10
844.6544289743942
 20
528.1934251123621
 30
0.0
 10
846.0231482739485
 20
527.5660891621793
 30
0.0
 10
847.1065141552427
 20
527.2239857795584
 30
0.0
 10
847.8479307840045
 20
526.9959630942461
 30
0.0
 10
848.5890391698738
 20
526.9387686241417
 30
0.0
 10
849.1022635854927
 20
526.9387686241417
 30
0.0
 10
849.3874807337043
 20
526.9387686241417
 30
0.0
 10
849.729584107683
 20
526.8248420482831
 30
0.0
 10
849.729584107683
 20
526.5396248928664
 30
0.0
 10
849.729584107683
 20
526.2545618588996
 30
0.0
 10
849.1594580541521
 20
526.1404657494457
 30
0.0
 10
848.5890391698738
 20
526.1404657494457
 30
0.0
 10
847.8479307840045
 20
526.1404657494457
 30
0.0
 10
844.1411867073778
 20
526.1404657494457
 30
0.0
 10
840.6627581410509
 20
526.2545618588996
 30
0.0
 10
839.693334244882
 20
526.3116022075537
 30
0.0
 10
838.8950313903531
 20
526.3116022075537
 30
0.0
 10
838.8950313903531
 20
526.5968193629706
 30
0.0
 10
838.8950313903531
 20
526.8248420482831
 30
0.0
 10
839.0091274969243
 20
526.8248420482831
 30
0.0
 10
839.2371347643317
 20
526.9387686241417
 30
0.0
 10
839.5223519125432
 20
527.0528647335952
 30
0.0
 10
840.0355917403066
 20
527.4520084648705
 30
0.0
 10
839.693334244882
 20
528.2504654610163
 30
0.0
 10
839.693334244882
 20
528.2504654610163
 30
0.0
 10
835.1884436352943
 20
539.3702356074668
 30
0.0
 10
835.1884436352943
 20
539.3702356074668
 30
0.0
 10
835.0745148621919
 20
539.5982582927793
 30
0.0
 10
835.0173203935325
 20
539.6552986414334
 30
0.0
 10
834.7322573667668
 20
539.6552986414334
 30
0.0
 10
834.7322573667668
 20
539.6552986414334
 30
0.0
 10
823.1562880206755
 20
539.6552986414334
 30
0.0
 10
823.1562880206755
 20
539.6552986414334
 30
0.0
 10
822.9282653411235
 20
539.6552986414334
 30
0.0
 10
822.7571288873386
 20
539.5412179441249
 30
0.0
 10
822.6430481929121
 20
539.256139498013
 30
0.0
 10
822.6430481929121
 20
539.256139498013
 30
0.0
 10
819.7918014394739
 20
531.5007018963085
 30
0.0
 10
819.7918014394739
 20
531.5007018963085
 30
0.0
 10
819.3357560803699
 20
530.3032552903373
 30
0.0
 10
819.0506948460525
 20
529.1058086843661
 30
0.0
 10
819.0506948460525
 20
528.2504654610163
 30
0.0
 10
819.0506948460525
 20
527.2810261282127
 30
0.0
 10
819.9058821339006
 20
526.9387686241417
 30
0.0
 10
820.7613794570889
 20
526.9387686241417
 30
0.0
 10
820.7613794570889
 20
526.9387686241417
 30
0.0
 10
821.2174248161929
 20
526.9387686241417
 30
0.0
 10
821.2174248161929
 20
526.9387686241417
 30
0.0
 10
821.616568537385
 20
526.9387686241417
 30
0.0
 10
821.7306646439563
 20
526.7678016996288
 30
0.0
 10
821.7306646439563
 20
526.5396248928664
 30
0.0
 10
821.7306646439563
 20
526.2545618588996
 30
0.0
 10
821.445601617191
 20
526.1404657494457
 30
0.0
 10
820.9894021366409
 20
526.1404657494457
 30
0.0
 10
819.79195556092
 20
526.1404657494457
 30
0.0
 10
817.0547895019083
 20
526.3116022075537
 30
0.0
 10
816.4845093269317
 20
526.3116022075537
 30
0.0
 10
815.9712694991679
 20
526.3116022075537
 30
0.0
 10
813.4622802411547
 20
526.1404657494457
 30
0.0
 10
811.4093363422451
 20
526.1404657494457
 30
0.0
 10
810.7820158200551
 20
526.1404657494457
 30
0.0
 10
810.4400665675225
 20
526.2545618588996
 30
0.0
 10
810.4400665675225
 20
526.5396248928664
 30
0.0
 10
810.4400665675225
 20
526.7678016996288
 30
0.0
 10
810.6679351256284
 20
526.9387686241417
 30
0.0
 10
810.8960965144817
 20
526.9387686241417
 30
0.0
 10
811.2383694220513
 20
526.9387686241417
 30
0.0
 10
811.9796165172221
 20
526.9959630942461
 30
0.0
 10
812.3787772744602
 20
527.0528647335952
 30
0.0
 10
814.6597422290204
 20
527.3380664768668
 30
0.0
 10
815.629166125189
 20
529.0487683357119
 30
0.0
 10
816.5985900213581
 20
531.5007018963085
 30
0.0
 10
816.5985900213581
 20
531.5007018963085
 30
0.0
 10
828.4025820470018
 20
561.8376444642299
 30
0.0
 10
828.4025820470018
 20
561.8376444642299
 30
0.0
  0
SPLINE
  5
3D9
330
3CD
100
AcDbEntity
  8
0
370
     0
100
AcDbSpline
210
0.0
220
0.0
230
1.0
 70
     9
 71
     3
 72
    23
 73
    19
 74
     0
 42
0.000000001
 43
0.0000000001
 40
0.0
 40
0.0
 40
0.0
 40
0.0
 40
1.0
 40
1.0
 40
1.0
 40
2.0
 40
2.0
 40
2.0
 40
3.0
 40
3.0
 40
3.0
 40
4.0
 40
4.0
 40
4.0
 40
5.0
 40
5.0
 40
5.0
 40
6.0
 40
6.0
 40
6.0
 40
6.0
 10
833.9908407380052
 20
541.6510481221002
 30
0.0
 10
834.2190197146358
 20
541.6510481221002
 30
0.0
 10
834.2190197146358
 20
541.7651288194089
 30
0.0
 10
834.1621159010918
 20
541.9933056261711
 30
0.0
 10
834.1621159010918
 20
541.9933056261711
 30
0.0
 10
829.2008849015308
 20
555.2798846506714
 30
0.0
 10
829.2008849015308
 20
555.2798846506714
 30
0.0
 10
828.9156677533192
 20
556.0212242374375
 30
0.0
 10
828.6306047265536
 20
556.0212242374375
 30
0.0
 10
828.3455416997885
 20
555.2798846506714
 30
0.0
 10
828.3455416997885
 20
555.2798846506714
 30
0.0
 10
823.669527848439
 20
541.9933056261711
 30
0.0
 10
823.669527848439
 20
541.9933056261711
 30
0.0
 10
823.6126262105271
 20
541.7651288194089
 30
0.0
 10
823.669527848439
 20
541.6510481221002
 30
0.0
 10
823.8406488900791
 20
541.6510481221002
 30
0.0
 10
823.8406488900791
 20
541.6510481221002
 30
0.0
 10
833.9908407380052
 20
541.6510481221002
 30
0.0
 10
833.9908407380052
 20
541.6510481221002
 30
0.0
  0
HATCH
  5
3DA
330
3CD
100
AcDbEntity
  8
0
100
AcDbHatch
 10
0.0
 20
0.0
 30
0.0
210
0.0
220
0.0
230
1.0
  2
SOLID
 70
     1
 71
     0
 91
        2
 92
        1
 93
        1
 72
     4
 94
        3
 73
     0
 74
     0
 95
       89
 96
       85
 40
0.0
 40
0.0
 40
0.0
 40
0.0
 40
1.0
 40
1.0
 40
1.0
 40
2.0
 40
2.0
 40
2.0
 40
3.0
 40
3.0
 40
3.0
 40
4.0
 40
4.0
 40
4.0
 40
5.0
 40
5.0
 40
5.0
 40
6.0
 40
6.0
 40
6.0
 40
7.0
 40
7.0
 40
7.0
 40
8.0
 40
8.0
 40
8.0
 40
9.0
 40
9.0
 40
9.0
 40
10.0
 40
10.0
 40
10.0
 40
11.0
 40
11.0
 40
11.0
 40
12.0
 40
12.0
 40
12.0
 40
13.0
 40
13.0
 40
13.0
 40
14.0
 40
14.0
 40
14.0
 40
15.0
 40
15.0
 40
15.0
 40
16.0
 40
16.0
 40
16.0
 40
17.0
 40
17.0
 40
17.0
 40
18.0
 40
18.0
 40
18.0
 40
19.0
 40
19.0
 40
19.0
 40
20.0
 40
20.0
 40
20.0
 40
21.0
 40
21.0
 40
21.0
 40
22.0
 40
22.0
 40
22.0
 40
23.0
 40
23.0
 40
23.0
 40
24.0
 40
24.0
 40
24.0
 40
25.0
 40
25.0
 40
25.0
 40
26.0
 40
26.0
 40
26.0
 40
27.0
 40
27.0
 40
27.0
 40
28.0
 40
28.0
 40
28.0
 40
28.0
 10
828.4025820470018
 20
561.8376444642299
 10
829.0297638598906
 20
563.4343272743465
 10
829.2579252487442
 20
563.719467369038
 10
829.600182744169
 20
563.719467369038
 10
830.1132684504864
 20
563.719467369038
 10
830.2844049042711
 20
563.0351681309257
 10
830.7976447320346
 20
561.9517405736838
 10
831.7100282809903
 20
559.8988582714926
 10
839.7503745920952
 20
539.8833213267456
 10
842.8296440250855
 20
532.5271815777666
 10
844.6544289743942
 20
528.1934251123621
 10
846.0231482739485
 20
527.5660891621793
 10
847.1065141552427
 20
527.2239857795584
 10
847.8479307840045
 20
526.9959630942461
 10
848.5890391698738
 20
526.9387686241417
 10
849.1022635854927
 20
526.9387686241417
 10
849.3874807337043
 20
526.9387686241417
 10
849.729584107683
 20
526.8248420482831
 10
849.729584107683
 20
526.5396248928664
 10
849.729584107683
 20
526.2545618588996
 10
849.1594580541521
 20
526.1404657494457
 10
848.5890391698738
 20
526.1404657494457
 10
847.8479307840045
 20
526.1404657494457
 10
844.1411867073778
 20
526.1404657494457
 10
840.6627581410509
 20
526.2545618588996
 10
839.693334244882
 20
526.3116022075537
 10
838.8950313903531
 20
526.3116022075537
 10
838.8950313903531
 20
526.5968193629706
 10
838.8950313903531
 20
526.8248420482831
 10
839.0091274969243
 20
526.8248420482831
 10
839.2371347643317
 20
526.9387686241417
 10
839.5223519125432
 20
527.0528647335952
 10
840.0355917403066
 20
527.4520084648705
 10
839.693334244882
 20
528.2504654610163
 10
839.693334244882
 20
528.2504654610163
 10
835.1884436352943
 20
539.3702356074668
 10
835.1884436352943
 20
539.3702356074668
 10
835.0745148621919
 20
539.5982582927793
 10
835.0173203935325
 20
539.6552986414334
 10
834.7322573667668
 20
539.6552986414334
 10
834.7322573667668
 20
539.6552986414334
 10
823.1562880206755
 20
539.6552986414334
 10
823.1562880206755
 20
539.6552986414334
 10
822.9282653411235
 20
539.6552986414334
 10
822.7571288873386
 20
539.5412179441249
 10
822.6430481929121
 20
539.256139498013
 10
822.6430481929121
 20
539.256139498013
 10
819.7918014394739
 20
531.5007018963085
 10
819.7918014394739
 20
531.5007018963085
 10
819.3357560803699
 20
530.3032552903373
 10
819.0506948460525
 20
529.1058086843661
 10
819.0506948460525
 20
528.2504654610163
 10
819.0506948460525
 20
527.2810261282127
 10
819.9058821339006
 20
526.9387686241417
 10
820.7613794570889
 20
526.9387686241417
 10
820.7613794570889
 20
526.9387686241417
 10
821.2174248161929
 20
526.9387686241417
 10
821.2174248161929
 20
526.9387686241417
 10
821.616568537385
 20
526.9387686241417
 10
821.7306646439563
 20
526.7678016996288
 10
821.7306646439563
 20
526.5396248928664
 10
821.7306646439563
 20
526.2545618588996
 10
821.445601617191
 20
526.1404657494457
 10
820.9894021366409
 20
526.1404657494457
 10
819.79195556092
 20
526.1404657494457
 10
817.0547895019083
 20
526.3116022075537
 10
816.4845093269317
 20
526.3116022075537
 10
815.9712694991679
 20
526.3116022075537
 10
813.4622802411547
 20
526.1404657494457
 10
811.4093363422451
 20
526.1404657494457
 10
810.7820158200551
 20
526.1404657494457
 10
810.4400665675225
 20
526.2545618588996
 10
810.4400665675225
 20
526.5396248928664
 10
810.4400665675225
 20
526.7678016996288
 10
810.6679351256284
 20
526.9387686241417
 10
810.8960965144817
 20
526.9387686241417
 10
811.2383694220513
 20
526.9387686241417
 10
811.9796165172221
 20
526.9959630942461
 10
812.3787772744602
 20
527.0528647335952
 10
814.6597422290204
 20
527.3380664768668
 10
815.629166125189
 20
529.0487683357119
 10
816.5985900213581
 20
531.5007018963085
 10
816.5985900213581
 20
531.5007018963085
 10
828.4025820470018
 20
561.8376444642299
 10
828.4025820470018
 20
561.8376444642299
 97
        0
 97
        0
 92
        1
 93
        1
 72
     4
 94
        3
 73
     0
 74
     0
 95
       23
 96
       19
 40
0.0
 40
0.0
 40
0.0
 40
0.0
 40
1.0
 40
1.0
 40
1.0
 40
2.0
 40
2.0
 40
2.0
 40
3.0
 40
3.0
 40
3.0
 40
4.0
 40
4.0
 40
4.0
 40
5.0
 40
5.0
 40
5.0
 40
6.0
 40
6.0
 40
6.0
 40
6.0
 10
833.9908407380052
 20
541.6510481221002
 10
834.2190197146358
 20
541.6510481221002
 10
834.2190197146358
 20
541.7651288194089
 10
834.1621159010918
 20
541.9933056261711
 10
834.1621159010918
 20
541.9933056261711
 10
829.2008849015308
 20
555.2798846506714
 10
829.2008849015308
 20
555.2798846506714
 10
828.9156677533192
 20
556.0212242374375
 10
828.6306047265536
 20
556.0212242374375
 10
828.3455416997885
 20
555.2798846506714
 10
828.3455416997885
 20
555.2798846506714
 10
823.669527848439
 20
541.9933056261711
 10
823.669527848439
 20
541.9933056261711
 10
823.6126262105271
 20
541.7651288194089
 10
823.669527848439
 20
541.6510481221002
 10
823.8406488900791
 20
541.6510481221002
 10
823.8406488900791
 20
541.6510481221002
 10
833.9908407380052
 20
541.6510481221002
 10
833.9908407380052
 20
541.6510481221002
 97
        0
 97
        0
 75
     2
 76
     1
 98
        0
450
        0
451
        0
460
0.0
461
0.0
452
        1
462
0.0
453
        0
470

  0
SPLINE
  5
3DB
330
3CD
100
AcDbEntity
  8
0
370
     0
100
AcDbSpline
210
0.0
220
0.0
230
1.0
 70
     9
 71
     3
 72
   113
 73
   109
 74
     0
 42
0.000000001
 43
0.0000000001
 40
0.0
 40
0.0
 40
0.0
 40
0.0
 40
1.0
 40
1.0
 40
1.0
 40
2.0
 40
2.0
 40
2.0
 40
3.0
 40
3.0
 40
3.0
 40
4.0
 40
4.0
 40
4.0
 40
5.0
 40
5.0
 40
5.0
 40
6.0
 40
6.0
 40
6.0
 40
7.0
 40
7.0
 40
7.0
 40
8.0
 40
8.0
 40
8.0
 40
9.0
 40
9.0
 40
9.0
 40
10.0
 40
10.0
 40
10.0
 40
11.0
 40
11.0
 40
11.0
 40
12.0
 40
12.0
 40
12.0
 40
13.0
 40
13.0
 40
13.0
 40
14.0
 40
14.0
 40
14.0
 40
15.0
 40
15.0
 40
15.0
 40
16.0
 40
16.0
 40
16.0
 40
17.0
 40
17.0
 40
17.0
 40
18.0
 40
18.0
 40
18.0
 40
19.0
 40
19.0
 40
19.0
 40
20.0
 40
20.0
 40
20.0
 40
21.0
 40
21.0
 40
21.0
 40
22.0
 40
22.0
 40
22.0
 40
23.0
 40
23.0
 40
23.0
 40
24.0
 40
24.0
 40
24.0
 40
25.0
 40
25.0
 40
25.0
 40
26.0
 40
26.0
 40
26.0
 40
27.0
 40
27.0
 40
27.0
 40
28.0
 40
28.0
 40
28.0
 40
29.0
 40
29.0
 40
29.0
 40
30.0
 40
30.0
 40
30.0
 40
31.0
 40
31.0
 40
31.0
 40
32.0
 40
32.0
 40
32.0
 40
33.0
 40
33.0
 40
33.0
 40
34.0
 40
34.0
 40
34.0
 40
35.0
 40
35.0
 40
35.0
 40
36.0
 40
36.0
 40
36.0
 40
36.0
 10
859.4269054982955
 20
548.7791651857673
 30
0.0
 10
859.4269054982955
 20
556.3062872714043
 30
0.0
 10
859.4269054982955
 20
557.6748703354834
 30
0.0
 10
859.3128093917242
 20
559.2145744455256
 30
0.0
 10
859.1987286972974
 20
560.8682205435711
 30
0.0
 10
858.9136656705321
 20
561.6666004789919
 30
0.0
 10
857.2600223719577
 20
561.8946848128842
 30
0.0
 10
856.8607217716229
 20
561.9517405736838
 30
0.0
 10
856.005517279182
 20
562.0087809223381
 30
0.0
 10
855.5491790893304
 20
562.0087809223381
 30
0.0
 10
855.3781994671497
 20
562.0087809223381
 30
0.0
 10
855.1500353681381
 20
562.2368036076505
 30
0.0
 10
855.1500353681381
 20
562.4079246536132
 30
0.0
 10
855.1500353681381
 20
562.6929876875798
 30
0.0
 10
855.3781994671497
 20
562.8070837970336
 30
0.0
 10
855.9484769319686
 20
562.8071608577587
 30
0.0
 10
858.2294462926167
 20
562.8071608577587
 30
0.0
 10
861.5939300916318
 20
562.6930647483052
 30
0.0
 10
861.8789931183972
 20
562.6930647483052
 30
0.0
 10
862.3922329461604
 20
562.6930647483052
 30
0.0
 10
866.6119086076585
 20
562.8071608577587
 30
0.0
 10
868.1516126788043
 20
562.8070837970336
 30
0.0
 10
871.3449782183657
 20
562.8070837970336
 30
0.0
 10
874.8805858412078
 20
562.5219437023421
 30
0.0
 10
877.5036557936479
 20
560.6971611461882
 30
0.0
 10
878.7580040072807
 20
559.7847775741841
 30
0.0
 10
880.9819335954912
 20
557.4468476501712
 30
0.0
 10
880.9819335954912
 20
554.0823609839755
 30
0.0
 10
880.9819335954912
 20
550.4898516324673
 30
0.0
 10
879.4994052238974
 20
547.0112842689627
 30
0.0
 10
874.8233945739332
 20
543.019785307629
 30
0.0
 10
878.9292791703669
 20
537.8874177246291
 30
0.0
 10
882.4075570082248
 20
533.4966054984252
 30
0.0
 10
885.3159948373454
 20
530.4743917484453
 30
0.0
 10
887.9959664276976
 20
527.7372256202871
 30
0.0
 10
889.6497511932702
 20
527.2810261282127
 30
0.0
 10
890.9043922376506
 20
527.1099050822497
 30
0.0
 10
891.8736774245182
 20
526.9387686241417
 30
0.0
 10
892.3869208973584
 20
526.9387686241417
 30
0.0
 10
892.6719802790469
 20
526.9387686241417
 30
0.0
 10
892.9570433058124
 20
526.9387686241417
 30
0.0
 10
893.1283184688986
 20
526.7107459388292
 30
0.0
 10
893.1283184688986
 20
526.5396248928664
 30
0.0
 10
893.1283184688986
 20
526.2545618588996
 30
0.0
 10
892.8429662679834
 20
526.1404657494457
 30
0.0
 10
891.9305790624301
 20
526.1404657494457
 30
0.0
 10
891.9305790624301
 20
526.1404657494457
 30
0.0
 10
888.7942538700817
 20
526.1404657494457
 30
0.0
 10
888.7942538700817
 20
526.1404657494457
 30
0.0
 10
885.9433153595359
 20
526.1404657494457
 30
0.0
 10
884.6886743151554
 20
526.4256829048624
 30
0.0
 10
883.4340178586302
 20
527.1099050822497
 30
0.0
 10
881.2673015081864
 20
528.2504654610163
 30
0.0
 10
879.4425189981305
 20
530.5883183243039
 30
0.0
 10
876.5912722446923
 20
534.2378680244666
 30
0.0
 10
874.4812879985696
 20
536.8610921646211
 30
0.0
 10
872.2573617673216
 20
539.9974020240545
 30
0.0
 10
871.1738417645811
 20
541.3089447394792
 30
0.0
 10
870.9458190850291
 20
541.5369674247914
 30
0.0
 10
870.8317383906024
 20
541.5941618948957
 30
0.0
 10
870.4896350166237
 20
541.5941618948957
 30
0.0
 10
870.4896350166237
 20
541.5941618948957
 30
0.0
 10
864.1029193496452
 20
541.7080884707544
 30
0.0
 10
864.1029193496452
 20
541.7080884707544
 30
0.0
 10
863.8747425486469
 20
541.7080884707544
 30
0.0
 10
863.7606618542204
 20
541.5941618948957
 30
0.0
 10
863.7606618542204
 20
541.3089447394792
 30
0.0
 10
863.7606618542204
 20
541.3089447394792
 30
0.0
 10
863.7606618542204
 20
540.1685384821623
 30
0.0
 10
863.7606618542204
 20
540.1685384821623
 30
0.0
 10
863.7606618542204
 20
535.4925091005418
 30
0.0
 10
863.7606618542204
 20
531.7288787030705
 30
0.0
 10
863.9888386552184
 20
529.7331292224042
 30
0.0
 10
864.1598209875569
 20
528.3075058096708
 30
0.0
 10
864.4450227236237
 20
527.3951222376663
 30
0.0
 10
865.9845880854684
 20
527.1669454309042
 30
0.0
 10
866.6691030763177
 20
527.0528647335952
 30
0.0
 10
867.7524689576124
 20
526.9387686241417
 30
0.0
 10
868.2086684381623
 20
526.9387686241417
 30
0.0
 10
868.550771812141
 20
526.9387686241417
 30
0.0
 10
868.6078121593544
 20
526.7107459388292
 30
0.0
 10
868.6078121593544
 20
526.5396248928664
 30
0.0
 10
868.6078121593544
 20
526.3116022075537
 30
0.0
 10
868.3797894798024
 20
526.1404657494457
 30
0.0
 10
867.8095093048256
 20
526.1404657494457
 30
0.0
 10
865.0723432458141
 20
526.1404657494457
 30
0.0
 10
861.8789931183972
 20
526.3116022075537
 30
0.0
 10
861.6508317295435
 20
526.3116022075537
 30
0.0
 10
861.5939300916318
 20
526.3116022075537
 30
0.0
 10
858.2294462926167
 20
526.1404657494457
 30
0.0
 10
856.6897394392841
 20
526.1404657494457
 30
0.0
 10
856.1764996115208
 20
526.1404657494457
 30
0.0
 10
855.8914365847552
 20
526.2545618588996
 30
0.0
 10
855.8914365847552
 20
526.5396248928664
 30
0.0
 10
855.8914365847552
 20
526.7107459388292
 30
0.0
 10
856.005517279182
 20
526.9387686241417
 30
0.0
 10
856.2905984512992
 20
526.9387686241417
 30
0.0
 10
856.7467797864976
 20
526.9387686241417
 30
0.0
 10
857.3739615993861
 20
527.0528647335952
 30
0.0
 10
857.8302997892379
 20
527.1669454309042
 30
0.0
 10
858.7995849761052
 20
527.3951222376663
 30
0.0
 10
858.9136656705321
 20
528.3075058096708
 30
0.0
 10
859.1418452767662
 20
529.7331292224042
 30
0.0
 10
859.4269054982955
 20
531.7288787030705
 30
0.0
 10
859.4269054982955
 20
535.5495494491964
 30
0.0
 10
859.4269054982955
 20
540.2254247093667
 30
0.0
 10
859.4269054982955
 20
540.2254247093667
 30
0.0
 10
859.4269054982955
 20
548.7791651857673
 30
0.0
 10
859.4269054982955
 20
548.7791651857673
 30
0.0
  0
SPLINE
  5
3DC
330
3CD
100
AcDbEntity
  8
0
370
     0
100
AcDbSpline
210
0.0
220
0.0
230
1.0
 70
     9
 71
     3
 72
    29
 73
    25
 74
     0
 42
0.000000001
 43
0.0000000001
 40
0.0
 40
0.0
 40
0.0
 40
0.0
 40
1.0
 40
1.0
 40
1.0
 40
2.0
 40
2.0
 40
2.0
 40
3.0
 40
3.0
 40
3.0
 40
4.0
 40
4.0
 40
4.0
 40
5.0
 40
5.0
 40
5.0
 40
6.0
 40
6.0
 40
6.0
 40
7.0
 40
7.0
 40
7.0
 40
8.0
 40
8.0
 40
8.0
 40
8.0
 10
863.7606618542204
 20
544.6734314056751
 30
0.0
 10
863.7606618542204
 20
544.3882142502582
 30
0.0
 10
863.8747425486469
 20
544.2172319136004
 30
0.0
 10
864.1029193496452
 20
544.0461108676371
 30
0.0
 10
864.8443389276996
 20
543.6469517242171
 30
0.0
 10
867.4102114621874
 20
543.3048483415961
 30
0.0
 10
869.6341376934354
 20
543.3048483415961
 30
0.0
 10
870.8317383906024
 20
543.3048483415961
 30
0.0
 10
872.200321420108
 20
543.3617345688003
 30
0.0
 10
873.3977711611997
 20
544.1601915649458
 30
0.0
 10
875.1084543993139
 20
545.3005978222626
 30
0.0
 10
876.4201512030521
 20
547.8667816137629
 30
0.0
 10
876.4201512030521
 20
551.5732946018547
 30
0.0
 10
876.4201512030521
 20
557.6178916354091
 30
0.0
 10
873.1127049690638
 20
561.0963973503337
 30
0.0
 10
867.7524689576124
 20
561.0963973503337
 30
0.0
 10
866.269808218983
 20
561.0963973503337
 30
0.0
 10
864.6730454031757
 20
560.9252608922256
 30
0.0
 10
864.1598209875569
 20
560.811257255642
 30
0.0
 10
863.9319399435501
 20
560.6971611461882
 30
0.0
 10
863.7606618542204
 20
560.5261171609503
 30
0.0
 10
863.7606618542204
 20
560.2409770662586
 30
0.0
 10
863.7606618542204
 20
560.2409770662586
 30
0.0
 10
863.7606618542204
 20
544.6734314056751
 30
0.0
 10
863.7606618542204
 20
544.6734314056751
 30
0.0
  0
HATCH
  5
3DD
330
3CD
100
AcDbEntity
  8
0
100
AcDbHatch
 10
0.0
 20
0.0
 30
0.0
210
0.0
220
0.0
230
1.0
  2
SOLID
 70
     1
 71
     0
 91
        2
 92
        1
 93
        1
 72
     4
 94
        3
 73
     0
 74
     0
 95
      113
 96
      109
 40
0.0
 40
0.0
 40
0.0
 40
0.0
 40
1.0
 40
1.0
 40
1.0
 40
2.0
 40
2.0
 40
2.0
 40
3.0
 40
3.0
 40
3.0
 40
4.0
 40
4.0
 40
4.0
 40
5.0
 40
5.0
 40
5.0
 40
6.0
 40
6.0
 40
6.0
 40
7.0
 40
7.0
 40
7.0
 40
8.0
 40
8.0
 40
8.0
 40
9.0
 40
9.0
 40
9.0
 40
10.0
 40
10.0
 40
10.0
 40
11.0
 40
11.0
 40
11.0
 40
12.0
 40
12.0
 40
12.0
 40
13.0
 40
13.0
 40
13.0
 40
14.0
 40
14.0
 40
14.0
 40
15.0
 40
15.0
 40
15.0
 40
16.0
 40
16.0
 40
16.0
 40
17.0
 40
17.0
 40
17.0
 40
18.0
 40
18.0
 40
18.0
 40
19.0
 40
19.0
 40
19.0
 40
20.0
 40
20.0
 40
20.0
 40
21.0
 40
21.0
 40
21.0
 40
22.0
 40
22.0
 40
22.0
 40
23.0
 40
23.0
 40
23.0
 40
24.0
 40
24.0
 40
24.0
 40
25.0
 40
25.0
 40
25.0
 40
26.0
 40
26.0
 40
26.0
 40
27.0
 40
27.0
 40
27.0
 40
28.0
 40
28.0
 40
28.0
 40
29.0
 40
29.0
 40
29.0
 40
30.0
 40
30.0
 40
30.0
 40
31.0
 40
31.0
 40
31.0
 40
32.0
 40
32.0
 40
32.0
 40
33.0
 40
33.0
 40
33.0
 40
34.0
 40
34.0
 40
34.0
 40
35.0
 40
35.0
 40
35.0
 40
36.0
 40
36.0
 40
36.0
 40
36.0
 10
859.4269054982955
 20
548.7791651857673
 10
859.4269054982955
 20
556.3062872714043
 10
859.4269054982955
 20
557.6748703354834
 10
859.3128093917242
 20
559.2145744455256
 10
859.1987286972974
 20
560.8682205435711
 10
858.9136656705321
 20
561.6666004789919
 10
857.2600223719577
 20
561.8946848128842
 10
856.8607217716229
 20
561.9517405736838
 10
856.005517279182
 20
562.0087809223381
 10
855.5491790893304
 20
562.0087809223381
 10
855.3781994671497
 20
562.0087809223381
 10
855.1500353681381
 20
562.2368036076505
 10
855.1500353681381
 20
562.4079246536132
 10
855.1500353681381
 20
562.6929876875798
 10
855.3781994671497
 20
562.8070837970336
 10
855.9484769319686
 20
562.8071608577587
 10
858.2294462926167
 20
562.8071608577587
 10
861.5939300916318
 20
562.6930647483052
 10
861.8789931183972
 20
562.6930647483052
 10
862.3922329461604
 20
562.6930647483052
 10
866.6119086076585
 20
562.8071608577587
 10
868.1516126788043
 20
562.8070837970336
 10
871.3449782183657
 20
562.8070837970336
 10
874.8805858412078
 20
562.5219437023421
 10
877.5036557936479
 20
560.6971611461882
 10
878.7580040072807
 20
559.7847775741841
 10
880.9819335954912
 20
557.4468476501712
 10
880.9819335954912
 20
554.0823609839755
 10
880.9819335954912
 20
550.4898516324673
 10
879.4994052238974
 20
547.0112842689627
 10
874.8233945739332
 20
543.019785307629
 10
878.9292791703669
 20
537.8874177246291
 10
882.4075570082248
 20
533.4966054984252
 10
885.3159948373454
 20
530.4743917484453
 10
887.9959664276976
 20
527.7372256202871
 10
889.6497511932702
 20
527.2810261282127
 10
890.9043922376506
 20
527.1099050822497
 10
891.8736774245182
 20
526.9387686241417
 10
892.3869208973584
 20
526.9387686241417
 10
892.6719802790469
 20
526.9387686241417
 10
892.9570433058124
 20
526.9387686241417
 10
893.1283184688986
 20
526.7107459388292
 10
893.1283184688986
 20
526.5396248928664
 10
893.1283184688986
 20
526.2545618588996
 10
892.8429662679834
 20
526.1404657494457
 10
891.9305790624301
 20
526.1404657494457
 10
891.9305790624301
 20
526.1404657494457
 10
888.7942538700817
 20
526.1404657494457
 10
888.7942538700817
 20
526.1404657494457
 10
885.9433153595359
 20
526.1404657494457
 10
884.6886743151554
 20
526.4256829048624
 10
883.4340178586302
 20
527.1099050822497
 10
881.2673015081864
 20
528.2504654610163
 10
879.4425189981305
 20
530.5883183243039
 10
876.5912722446923
 20
534.2378680244666
 10
874.4812879985696
 20
536.8610921646211
 10
872.2573617673216
 20
539.9974020240545
 10
871.1738417645811
 20
541.3089447394792
 10
870.9458190850291
 20
541.5369674247914
 10
870.8317383906024
 20
541.5941618948957
 10
870.4896350166237
 20
541.5941618948957
 10
870.4896350166237
 20
541.5941618948957
 10
864.1029193496452
 20
541.7080884707544
 10
864.1029193496452
 20
541.7080884707544
 10
863.8747425486469
 20
541.7080884707544
 10
863.7606618542204
 20
541.5941618948957
 10
863.7606618542204
 20
541.3089447394792
 10
863.7606618542204
 20
541.3089447394792
 10
863.7606618542204
 20
540.1685384821623
 10
863.7606618542204
 20
540.1685384821623
 10
863.7606618542204
 20
535.4925091005418
 10
863.7606618542204
 20
531.7288787030705
 10
863.9888386552184
 20
529.7331292224042
 10
864.1598209875569
 20
528.3075058096708
 10
864.4450227236237
 20
527.3951222376663
 10
865.9845880854684
 20
527.1669454309042
 10
866.6691030763177
 20
527.0528647335952
 10
867.7524689576124
 20
526.9387686241417
 10
868.2086684381623
 20
526.9387686241417
 10
868.550771812141
 20
526.9387686241417
 10
868.6078121593544
 20
526.7107459388292
 10
868.6078121593544
 20
526.5396248928664
 10
868.6078121593544
 20
526.3116022075537
 10
868.3797894798024
 20
526.1404657494457
 10
867.8095093048256
 20
526.1404657494457
 10
865.0723432458141
 20
526.1404657494457
 10
861.8789931183972
 20
526.3116022075537
 10
861.6508317295435
 20
526.3116022075537
 10
861.5939300916318
 20
526.3116022075537
 10
858.2294462926167
 20
526.1404657494457
 10
856.6897394392841
 20
526.1404657494457
 10
856.1764996115208
 20
526.1404657494457
 10
855.8914365847552
 20
526.2545618588996
 10
855.8914365847552
 20
526.5396248928664
 10
855.8914365847552
 20
526.7107459388292
 10
856.005517279182
 20
526.9387686241417
 10
856.2905984512992
 20
526.9387686241417
 10
856.7467797864976
 20
526.9387686241417
 10
857.3739615993861
 20
527.0528647335952
 10
857.8302997892379
 20
527.1669454309042
 10
858.7995849761052
 20
527.3951222376663
 10
858.9136656705321
 20
528.3075058096708
 10
859.1418452767662
 20
529.7331292224042
 10
859.4269054982955
 20
531.7288787030705
 10
859.4269054982955
 20
535.5495494491964
 10
859.4269054982955
 20
540.2254247093667
 10
859.4269054982955
 20
540.2254247093667
 10
859.4269054982955
 20
548.7791651857673
 10
859.4269054982955
 20
548.7791651857673
 97
        0
 97
        0
 92
        1
 93
        1
 72
     4
 94
        3
 73
     0
 74
     0
 95
       29
 96
       25
 40
0.0
 40
0.0
 40
0.0
 40
0.0
 40
1.0
 40
1.0
 40
1.0
 40
2.0
 40
2.0
 40
2.0
 40
3.0
 40
3.0
 40
3.0
 40
4.0
 40
4.0
 40
4.0
 40
5.0
 40
5.0
 40
5.0
 40
6.0
 40
6.0
 40
6.0
 40
7.0
 40
7.0
 40
7.0
 40
8.0
 40
8.0
 40
8.0
 40
8.0
 10
863.7606618542204
 20
544.6734314056751
 10
863.7606618542204
 20
544.3882142502582
 10
863.8747425486469
 20
544.2172319136004
 10
864.1029193496452
 20
544.0461108676371
 10
864.8443389276996
 20
543.6469517242171
 10
867.4102114621874
 20
543.3048483415961
 10
869.6341376934354
 20
543.3048483415961
 10
870.8317383906024
 20
543.3048483415961
 10
872.200321420108
 20
543.3617345688003
 10
873.3977711611997
 20
544.1601915649458
 10
875.1084543993139
 20
545.3005978222626
 10
876.4201512030521
 20
547.8667816137629
 10
876.4201512030521
 20
551.5732946018547
 10
876.4201512030521
 20
557.6178916354091
 10
873.1127049690638
 20
561.0963973503337
 10
867.7524689576124
 20
561.0963973503337
 10
866.269808218983
 20
561.0963973503337
 10
864.6730454031757
 20
560.9252608922256
 10
864.1598209875569
 20
560.811257255642
 10
863.9319399435501
 20
560.6971611461882
 10
863.7606618542204
 20
560.5261171609503
 10
863.7606618542204
 20
560.2409770662586
 10
863.7606618542204
 20
560.2409770662586
 10
863.7606618542204
 20
544.6734314056751
 10
863.7606618542204
 20
544.6734314056751
 97
        0
 97
        0
 75
     2
 76
     1
 98
        0
450
        0
451
        0
460
0.0
461
0.0
452
        1
462
0.0
453
        0
470

  0
SPLINE
  5
3DE
330
3CD
100
AcDbEntity
  8
0
370
     0
100
AcDbSpline
210
0.0
220
0.0
230
1.0
 70
     9
 71
     3
 72
    98
 73
    94
 74
     0
 42
0.000000001
 43
0.0000000001
 40
0.0
 40
0.0
 40
0.0
 40
0.0
 40
1.0
 40
1.0
 40
1.0
 40
2.0
 40
2.0
 40
2.0
 40
3.0
 40
3.0
 40
3.0
 40
4.0
 40
4.0
 40
4.0
 40
5.0
 40
5.0
 40
5.0
 40
6.0
 40
6.0
 40
6.0
 40
7.0
 40
7.0
 40
7.0
 40
8.0
 40
8.0
 40
8.0
 40
9.0
 40
9.0
 40
9.0
 40
10.0
 40
10.0
 40
10.0
 40
11.0
 40
11.0
 40
11.0
 40
12.0
 40
12.0
 40
12.0
 40
13.0
 40
13.0
 40
13.0
 40
14.0
 40
14.0
 40
14.0
 40
15.0
 40
15.0
 40
15.0
 40
16.0
 40
16.0
 40
16.0
 40
17.0
 40
17.0
 40
17.0
 40
18.0
 40
18.0
 40
18.0
 40
19.0
 40
19.0
 40
19.0
 40
20.0
 40
20.0
 40
20.0
 40
21.0
 40
21.0
 40
21.0
 40
22.0
 40
22.0
 40
22.0
 40
23.0
 40
23.0
 40
23.0
 40
24.0
 40
24.0
 40
24.0
 40
25.0
 40
25.0
 40
25.0
 40
26.0
 40
26.0
 40
26.0
 40
27.0
 40
27.0
 40
27.0
 40
28.0
 40
28.0
 40
28.0
 40
29.0
 40
29.0
 40
29.0
 40
30.0
 40
30.0
 40
30.0
 40
31.0
 40
31.0
 40
31.0
 40
31.0
 10
908.0118767980762
 20
540.1114981335081
 30
0.0
 10
908.0118767980762
 20
532.9835197791464
 30
0.0
 10
908.1259729075302
 20
530.075232605025
 30
0.0
 10
909.0383564795347
 20
529.2198893816751
 30
0.0
 10
909.8366593542303
 20
528.4215865069795
 30
0.0
 10
911.7755226076925
 20
528.0793290029081
 30
0.0
 10
915.7101353418219
 20
528.0793290029081
 30
0.0
 10
918.3332053605264
 20
528.0793290029081
 30
0.0
 10
920.5571316479552
 20
528.1363693515626
 30
0.0
 10
921.7548864968263
 20
529.561992764296
 30
0.0
 10
922.381898791964
 20
530.3032552903373
 30
0.0
 10
922.7810579353844
 20
531.3297349717953
 30
0.0
 10
922.9523331027976
 20
532.2991588924543
 30
0.0
 10
923.009219330002
 20
532.6412622750751
 30
0.0
 10
923.1802016666597
 20
532.9263253090418
 30
0.0
 10
923.4655729435266
 20
532.9263253090418
 30
0.0
 10
923.6934415073887
 20
532.9263253090418
 30
0.0
 10
923.8075222046974
 20
532.6983026237297
 30
0.0
 10
923.8075222046974
 20
532.1850781951455
 30
0.0
 10
923.8075222046974
 20
531.6718383544163
 30
0.0
 10
923.4655729435266
 20
528.763551180295
 30
0.0
 10
923.0664138001063
 20
527.3380664768668
 30
0.0
 10
922.7241562960356
 20
526.1975215102451
 30
0.0
 10
922.5531893715224
 20
526.0263850521372
 30
0.0
 10
919.8729094705687
 20
526.0263850521372
 30
0.0
 10
916.2805542405104
 20
526.0263850521372
 30
0.0
 10
913.4862090543927
 20
526.0835795222416
 30
0.0
 10
911.1482020696554
 20
526.1975215102451
 30
0.0
 10
908.8673741428763
 20
526.2545618588996
 30
0.0
 10
907.1566876961766
 20
526.3116022075537
 30
0.0
 10
905.6738698133388
 20
526.3116022075537
 30
0.0
 10
905.4457084187216
 20
526.3116022075537
 30
0.0
 10
904.5905039046763
 20
526.3116022075537
 30
0.0
 10
903.6209258625678
 20
526.2545618588996
 30
0.0
 10
902.5947544240095
 20
526.1975215102451
 30
0.0
 10
901.5110918090192
 20
526.1404657494457
 30
0.0
 10
900.7127889544905
 20
526.1404657494457
 30
0.0
 10
900.1995491267269
 20
526.1404657494457
 30
0.0
 10
899.9144860999617
 20
526.2545618588996
 30
0.0
 10
899.9144860999617
 20
526.5396248928664
 30
0.0
 10
899.9144860999617
 20
526.7107459388292
 30
0.0
 10
900.0285706325096
 20
526.9387686241417
 30
0.0
 10
900.3136298211538
 20
526.9387686241417
 30
0.0
 10
900.76998342315
 20
526.9387686241417
 30
0.0
 10
901.396995702448
 20
527.0528647335952
 30
0.0
 10
901.8533493044442
 20
527.1669454309042
 30
0.0
 10
902.822622987872
 20
527.3951222376663
 30
0.0
 10
902.936719097326
 20
528.3075058096708
 30
0.0
 10
903.1648804919427
 20
529.7331292224042
 30
0.0
 10
903.44994352591
 20
531.7288787030705
 30
0.0
 10
903.44994352591
 20
535.5495494491964
 30
0.0
 10
903.44994352591
 20
540.2254247093667
 30
0.0
 10
903.44994352591
 20
540.2254247093667
 30
0.0
 10
903.44994352591
 20
548.7791651857673
 30
0.0
 10
903.44994352591
 20
548.7791651857673
 30
0.0
 10
903.44994352591
 20
556.3062872714043
 30
0.0
 10
903.44994352591
 20
557.6748703354834
 30
0.0
 10
903.3358628286011
 20
559.2145744455256
 30
0.0
 10
903.2217821312924
 20
560.8682205435711
 30
0.0
 10
902.936719097326
 20
561.6666004789919
 30
0.0
 10
901.2829150080213
 20
561.8946848128842
 30
0.0
 10
900.8837558746844
 20
561.9517405736838
 30
0.0
 10
900.0285706325096
 20
562.0087809223381
 30
0.0
 10
899.5722286045367
 20
562.0087809223381
 30
0.0
 10
899.4012462721981
 20
562.0087809223381
 30
0.0
 10
899.1730694712
 20
562.2368036076505
 30
0.0
 10
899.1730694712
 20
562.4079246536132
 30
0.0
 10
899.1730694712
 20
562.6929876875798
 30
0.0
 10
899.4012462721981
 20
562.8070837970336
 30
0.0
 10
899.9713723257288
 20
562.8071608577587
 30
0.0
 10
902.2524969199388
 20
562.8071608577587
 30
0.0
 10
905.3888067793719
 20
562.6930647483052
 30
0.0
 10
905.6738698133388
 20
562.6930647483052
 30
0.0
 10
905.9020466201014
 20
562.6930647483052
 30
0.0
 10
909.6656770175723
 20
562.8071608577587
 30
0.0
 10
911.2053965397594
 20
562.8070837970336
 30
0.0
 10
911.7186209683437
 20
562.8070837970336
 30
0.0
 10
912.0036840023102
 20
562.6929876875798
 30
0.0
 10
912.0036840023102
 20
562.4079246536132
 30
0.0
 10
912.0036840023102
 20
562.2368036076505
 30
0.0
 10
911.7755226076925
 20
562.0657442102674
 30
0.0
 10
911.6045402710346
 20
562.0657442102674
 30
0.0
 10
911.2622827669639
 20
562.0657442102674
 30
0.0
 10
910.5208661194723
 20
562.0087809223381
 30
0.0
 10
909.950740051539
 20
561.9517405736838
 30
0.0
 10
908.4682304116013
 20
561.6666004789919
 30
0.0
 10
908.1828591347344
 20
560.9252608922256
 30
0.0
 10
908.0690712681812
 20
559.2145744455256
 30
0.0
 10
908.0118767980762
 20
557.6748703354834
 30
0.0
 10
908.0118767980762
 20
556.3062872714043
 30
0.0
 10
908.0118767980762
 20
548.7791651857673
 30
0.0
 10
908.0118767980762
 20
548.7791651857673
 30
0.0
 10
908.0118767980762
 20
540.1114981335081
 30
0.0
 10
908.0118767980762
 20
540.1114981335081
 30
0.0
  0
HATCH
  5
3DF
330
3CD
100
AcDbEntity
  8
0
100
AcDbHatch
 10
0.0
 20
0.0
 30
0.0
210
0.0
220
0.0
230
1.0
  2
SOLID
 70
     1
 71
     0
 91
        1
 92
        1
 93
        1
 72
     4
 94
        3
 73
     0
 74
     0
 95
       98
 96
       94
 40
0.0
 40
0.0
 40
0.0
 40
0.0
 40
1.0
 40
1.0
 40
1.0
 40
2.0
 40
2.0
 40
2.0
 40
3.0
 40
3.0
 40
3.0
 40
4.0
 40
4.0
 40
4.0
 40
5.0
 40
5.0
 40
5.0
 40
6.0
 40
6.0
 40
6.0
 40
7.0
 40
7.0
 40
7.0
 40
8.0
 40
8.0
 40
8.0
 40
9.0
 40
9.0
 40
9.0
 40
10.0
 40
10.0
 40
10.0
 40
11.0
 40
11.0
 40
11.0
 40
12.0
 40
12.0
 40
12.0
 40
13.0
 40
13.0
 40
13.0
 40
14.0
 40
14.0
 40
14.0
 40
15.0
 40
15.0
 40
15.0
 40
16.0
 40
16.0
 40
16.0
 40
17.0
 40
17.0
 40
17.0
 40
18.0
 40
18.0
 40
18.0
 40
19.0
 40
19.0
 40
19.0
 40
20.0
 40
20.0
 40
20.0
 40
21.0
 40
21.0
 40
21.0
 40
22.0
 40
22.0
 40
22.0
 40
23.0
 40
23.0
 40
23.0
 40
24.0
 40
24.0
 40
24.0
 40
25.0
 40
25.0
 40
25.0
 40
26.0
 40
26.0
 40
26.0
 40
27.0
 40
27.0
 40
27.0
 40
28.0
 40
28.0
 40
28.0
 40
29.0
 40
29.0
 40
29.0
 40
30.0
 40
30.0
 40
30.0
 40
31.0
 40
31.0
 40
31.0
 40
31.0
 10
908.0118767980762
 20
540.1114981335081
 10
908.0118767980762
 20
532.9835197791464
 10
908.1259729075302
 20
530.075232605025
 10
909.0383564795347
 20
529.2198893816751
 10
909.8366593542303
 20
528.4215865069795
 10
911.7755226076925
 20
528.0793290029081
 10
915.7101353418219
 20
528.0793290029081
 10
918.3332053605264
 20
528.0793290029081
 10
920.5571316479552
 20
528.1363693515626
 10
921.7548864968263
 20
529.561992764296
 10
922.381898791964
 20
530.3032552903373
 10
922.7810579353844
 20
531.3297349717953
 10
922.9523331027976
 20
532.2991588924543
 10
923.009219330002
 20
532.6412622750751
 10
923.1802016666597
 20
532.9263253090418
 10
923.4655729435266
 20
532.9263253090418
 10
923.6934415073887
 20
532.9263253090418
 10
923.8075222046974
 20
532.6983026237297
 10
923.8075222046974
 20
532.1850781951455
 10
923.8075222046974
 20
531.6718383544163
 10
923.4655729435266
 20
528.763551180295
 10
923.0664138001063
 20
527.3380664768668
 10
922.7241562960356
 20
526.1975215102451
 10
922.5531893715224
 20
526.0263850521372
 10
919.8729094705687
 20
526.0263850521372
 10
916.2805542405104
 20
526.0263850521372
 10
913.4862090543927
 20
526.0835795222416
 10
911.1482020696554
 20
526.1975215102451
 10
908.8673741428763
 20
526.2545618588996
 10
907.1566876961766
 20
526.3116022075537
 10
905.6738698133388
 20
526.3116022075537
 10
905.4457084187216
 20
526.3116022075537
 10
904.5905039046763
 20
526.3116022075537
 10
903.6209258625678
 20
526.2545618588996
 10
902.5947544240095
 20
526.1975215102451
 10
901.5110918090192
 20
526.1404657494457
 10
900.7127889544905
 20
526.1404657494457
 10
900.1995491267269
 20
526.1404657494457
 10
899.9144860999617
 20
526.2545618588996
 10
899.9144860999617
 20
526.5396248928664
 10
899.9144860999617
 20
526.7107459388292
 10
900.0285706325096
 20
526.9387686241417
 10
900.3136298211538
 20
526.9387686241417
 10
900.76998342315
 20
526.9387686241417
 10
901.396995702448
 20
527.0528647335952
 10
901.8533493044442
 20
527.1669454309042
 10
902.822622987872
 20
527.3951222376663
 10
902.936719097326
 20
528.3075058096708
 10
903.1648804919427
 20
529.7331292224042
 10
903.44994352591
 20
531.7288787030705
 10
903.44994352591
 20
535.5495494491964
 10
903.44994352591
 20
540.2254247093667
 10
903.44994352591
 20
540.2254247093667
 10
903.44994352591
 20
548.7791651857673
 10
903.44994352591
 20
548.7791651857673
 10
903.44994352591
 20
556.3062872714043
 10
903.44994352591
 20
557.6748703354834
 10
903.3358628286011
 20
559.2145744455256
 10
903.2217821312924
 20
560.8682205435711
 10
902.936719097326
 20
561.6666004789919
 10
901.2829150080213
 20
561.8946848128842
 10
900.8837558746844
 20
561.9517405736838
 10
900.0285706325096
 20
562.0087809223381
 10
899.5722286045367
 20
562.0087809223381
 10
899.4012462721981
 20
562.0087809223381
 10
899.1730694712
 20
562.2368036076505
 10
899.1730694712
 20
562.4079246536132
 10
899.1730694712
 20
562.6929876875798
 10
899.4012462721981
 20
562.8070837970336
 10
899.9713723257288
 20
562.8071608577587
 10
902.2524969199388
 20
562.8071608577587
 10
905.3888067793719
 20
562.6930647483052
 10
905.6738698133388
 20
562.6930647483052
 10
905.9020466201014
 20
562.6930647483052
 10
909.6656770175723
 20
562.8071608577587
 10
911.2053965397594
 20
562.8070837970336
 10
911.7186209683437
 20
562.8070837970336
 10
912.0036840023102
 20
562.6929876875798
 10
912.0036840023102
 20
562.4079246536132
 10
912.0036840023102
 20
562.2368036076505
 10
911.7755226076925
 20
562.0657442102674
 10
911.6045402710346
 20
562.0657442102674
 10
911.2622827669639
 20
562.0657442102674
 10
910.5208661194723
 20
562.0087809223381
 10
909.950740051539
 20
561.9517405736838
 10
908.4682304116013
 20
561.6666004789919
 10
908.1828591347344
 20
560.9252608922256
 10
908.0690712681812
 20
559.2145744455256
 10
908.0118767980762
 20
557.6748703354834
 10
908.0118767980762
 20
556.3062872714043
 10
908.0118767980762
 20
548.7791651857673
 10
908.0118767980762
 20
548.7791651857673
 10
908.0118767980762
 20
540.1114981335081
 10
908.0118767980762
 20
540.1114981335081
 97
        0
 97
        0
 75
     2
 76
     1
 98
        0
450
        0
451
        0
460
0.0
461
0.0
452
        1
462
0.0
453
        0
470

  0
HATCH
  5
3E0
330
3CD
100
AcDbEntity
  8
0
100
AcDbHatch
 10
0.0
 20
0.0
 30
0.0
210
0.0
220
0.0
230
1.0
  2
SOLID
 70
     1
 71
     0
 91
        4
 92
        1
 93
        1
 72
     4
 94
        3
 73
     0
 74
     0
 95
       17
 96
       13
 40
0.0
 40
0.0
 40
0.0
 40
0.0
 40
1.0
 40
1.0
 40
1.0
 40
2.0
 40
2.0
 40
2.0
 40
3.0
 40
3.0
 40
3.0
 40
4.0
 40
4.0
 40
4.0
 40
4.0
 10
926.3686902311143
 20
568.0206148522866
 10
926.3686902311143
 20
566.30581008745
 10
924.989195830572
 20
564.9454042468512
 10
923.2371806951592
 20
564.9454042468512
 10
921.4848812217136
 20
564.9454042468512
 10
920.0868669372937
 20
566.30581008745
 10
920.0868669372937
 20
568.0206148522866
 10
920.0868669372937
 20
569.7354196171243
 10
921.4848812217136
 20
571.0778173823042
 10
923.2555678879553
 20
571.0778173823042
 10
924.989195830572
 20
571.0778173823042
 10
926.3686902311143
 20
569.7354196171243
 10
926.3686902311143
 20
568.0206148522866
 97
        0
 97
        0
 92
        1
 93
        1
 72
     4
 94
        3
 73
     0
 74
     0
 95
       17
 96
       13
 40
0.0
 40
0.0
 40
0.0
 40
0.0
 40
1.0
 40
1.0
 40
1.0
 40
2.0
 40
2.0
 40
2.0
 40
3.0
 40
3.0
 40
3.0
 40
4.0
 40
4.0
 40
4.0
 40
4.0
 10
920.8697064095444
 20
568.0206148522866
 10
920.8697064095444
 20
566.6599246736555
 10
921.8950483121432
 20
565.5789662518161
 10
923.2555678879553
 20
565.5789662518161
 10
924.5791803870931
 20
565.5601620299054
 10
925.5856991119124
 20
566.6599246736555
 10
925.5856991119124
 20
568.0020570566711
 10
925.5856991119124
 20
569.3627472353028
 10
924.5791803870931
 20
570.4627942170857
 10
923.2184902084616
 20
570.4627942170857
 10
921.8950483121432
 20
570.4627942170857
 10
920.8697064095444
 20
569.3627472353028
 10
920.8697064095444
 20
568.0206148522866
 97
        0
 97
        0
 92
        1
 93
        1
 72
     4
 94
        3
 73
     0
 74
     0
 95
       47
 96
       43
 40
0.0
 40
0.0
 40
0.0
 40
0.0
 40
1.0
 40
1.0
 40
1.0
 40
2.0
 40
2.0
 40
2.0
 40
3.0
 40
3.0
 40
3.0
 40
4.0
 40
4.0
 40
4.0
 40
5.0
 40
5.0
 40
5.0
 40
6.0
 40
6.0
 40
6.0
 40
7.0
 40
7.0
 40
7.0
 40
8.0
 40
8.0
 40
8.0
 40
9.0
 40
9.0
 40
9.0
 40
10.0
 40
10.0
 40
10.0
 40
11.0
 40
11.0
 40
11.0
 40
12.0
 40
12.0
 40
12.0
 40
13.0
 40
13.0
 40
13.0
 40
14.0
 40
14.0
 40
14.0
 40
14.0
 10
922.7522895696768
 20
566.4363970680382
 10
922.7522895696768
 20
566.4363970680382
 10
922.0441551766096
 20
566.4363970680382
 10
922.0441551766096
 20
566.4363970680382
 10
922.0441551766096
 20
566.4363970680382
 10
922.0441551766096
 20
569.4933342158915
 10
922.0441551766096
 20
569.4933342158915
 10
922.32375424232
 20
569.5304118953847
 10
922.7149654638877
 20
569.586578134822
 10
923.2184902084616
 20
569.586578134822
 10
923.7961892678917
 20
569.586578134822
 10
924.0570978469039
 20
569.4933342158915
 10
924.2622382597254
 20
569.3439051016546
 10
924.4485934065046
 20
569.2136024590992
 10
924.5791803870931
 20
568.9900748534815
 10
924.5791803870931
 20
568.6917853010737
 10
924.5791803870931
 20
568.3188664929572
 10
924.2994486303008
 20
568.0767810917242
 10
923.9453150882262
 20
567.9649983330468
 10
923.9453150882262
 20
567.9649983330468
 10
923.9453150882262
 20
567.9276363155199
 10
923.9453150882262
 20
567.9276363155199
 10
924.2435667288967
 20
567.8344113524587
 10
924.3927115051004
 20
567.5920226573232
 10
924.4859364681625
 20
567.1820072138447
 10
924.5791803870931
 20
566.7158255309288
 10
924.6536011282442
 20
566.548141914978
 10
924.7096157207304
 20
566.4363970680382
 10
924.7096157207304
 20
566.4363970680382
 10
923.9639866190547
 20
566.4363970680382
 10
923.9639866190547
 20
566.4363970680382
 10
923.8707616559931
 20
566.548141914978
 10
923.8148797545887
 20
566.8090694498594
 10
923.7216358356583
 20
567.1820072138447
 10
923.665734978385
 20
567.4987976942617
 10
923.4792660963922
 20
567.6479424704655
 10
923.0880548748242
 20
567.6479424704655
 10
923.0880548748242
 20
567.6479424704655
 10
922.7522895696768
 20
567.6479424704655
 10
922.7522895696768
 20
567.6479424704655
 10
922.7522895696768
 20
567.6479424704655
 10
922.7522895696768
 20
566.4363970680382
 10
922.7522895696768
 20
566.4363970680382
 97
        0
 97
        0
 92
        1
 93
        1
 72
     4
 94
        3
 73
     0
 74
     0
 95
       20
 96
       16
 40
0.0
 40
0.0
 40
0.0
 40
0.0
 40
1.0
 40
1.0
 40
1.0
 40
2.0
 40
2.0
 40
2.0
 40
3.0
 40
3.0
 40
3.0
 40
4.0
 40
4.0
 40
4.0
 40
5.0
 40
5.0
 40
5.0
 40
5.0
 10
922.771131703325
 20
568.1512018328752
 10
922.771131703325
 20
568.1512018328752
 10
923.106461023489
 20
568.1512018328752
 10
923.106461023489
 20
568.1512018328752
 10
923.4979376272212
 20
568.1512018328752
 10
923.8148797545887
 20
568.2817888134635
 10
923.8148797545887
 20
568.5985603380117
 10
923.8148797545887
 20
568.8782920948042
 10
923.6097203858983
 20
569.0644766387637
 10
923.1623239690243
 20
569.0644766387637
 10
922.9760067339826
 20
569.0644766387637
 10
922.8457040914273
 20
569.0456534609842
 10
922.771131703325
 20
569.0273989592705
 10
922.771131703325
 20
569.0273989592705
 10
922.771131703325
 20
568.1512018328752
 10
922.771131703325
 20
568.1512018328752
 97
        0
 97
        0
 75
     2
 76
     1
 98
        0
450
        0
451
        0
460
0.0
461
0.0
452
        1
462
0.0
453
        0
470

  0
ENDBLK
  5
3E1
330
3CD
100
AcDbEntity
  8
0
100
AcDbBlockEnd
  0
ENDSEC
  0
SECTION
  2
ENTITIES
  0
SPLINE
  5
70
330
1F
100
AcDbEntity
  8
layer 1
 62
   242
370
   211
100
AcDbSpline
210
0.0
220
0.0
230
1.0
 70
     9
 71
     3
 72
    36
 73
    32
 74
     0
 42
0.000000001
 43
0.0000000001
 40
0.0
 40
0.0
 40
0.0
 40
0.0
 40
0.1111111111111111
 40
0.1111111111111111
 40
0.1111111111111111
 40
0.1111111211111111
 40
0.2222222222222222
 40
0.2222222222222222
 40
0.2222222222222222
 40
0.2222222322222222
 40
0.3333333333333333
 40
0.3333333333333333
 40
0.3333333333333333
 40
0.3333333433333333
 40
0.4444444444444445
 40
0.4444444444444445
 40
0.4444444444444445
 40
0.4444444544444444
 40
0.5555555555555556
 40
0.5555555555555556
 40
0.5555555555555556
 40
0.5555555655555558
 40
0.6666666666666666
 40
0.6666666666666666
 40
0.6666666666666666
 40
0.6666666766666669
 40
0.7777777777777778
 40
0.7777777777777778
 40
0.7777777777777778
 40
0.7777777877777778
 40
1.0
 40
1.0
 40
1.0
 40
1.0
 10
-241.7279
 20
193.3047
 30
0.0
 10
-241.7279
 20
193.3047
 30
0.0
 10
246.0884
 20
193.3047
 30
0.0
 10
246.0884
 20
193.3047
 30
0.0
 10
246.0884
 20
193.3047
 30
0.0
 10
261.6989
 20
193.3047
 30
0.0
 10
274.4709
 20
180.8684
 30
0.0
 10
274.4709
 20
165.668
 30
0.0
 10
274.4709
 20
165.668
 30
0.0
 10
274.4709
 20
165.668
 30
0.0
 10
274.4709
 20
-181.0587
 30
0.0
 10
274.4709
 20
-181.0587
 30
0.0
 10
274.4709
 20
-181.0587
 30
0.0
 10
274.4709
 20
-196.259
 30
0.0
 10
261.6989
 20
-208.6954
 30
0.0
 10
246.0884
 20
-208.6954
 30
0.0
 10
246.0884
 20
-208.6954
 30
0.0
 10
246.0884
 20
-208.6954
 30
0.0
 10
-241.7279
 20
-208.6954
 30
0.0
 10
-241.7279
 20
-208.6954
 30
0.0
 10
-241.7279
 20
-208.6954
 30
0.0
 10
-257.3387
 20
-208.6954
 30
0.0
 10
-270.1104
 20
-196.259
 30
0.0
 10
-270.1104
 20
-181.0587
 30
0.0
 10
-270.1104
 20
-181.0587
 30
0.0
 10
-270.1104
 20
-181.0587
 30
0.0
 10
-270.1104
 20
165.668
 30
0.0
 10
-270.1104
 20
165.668
 30
0.0
 10
-270.1104
 20
165.668
 30
0.0
 10
-270.1104
 20
180.8684
 30
0.0
 10
-257.3387
 20
193.3047
 30
0.0
 10
-241.7279
 20
193.3047
 30
0.0
  0
INSERT
  5
3F4
330
1F
100
AcDbEntity
  8
0
100
AcDbBlockReference
  2
1.1
 10
-722.5707086378756
 20
-344.5888999276224
 30
1629.18920759858
 41
0.9056848720811803
 42
0.9056848720811803
 43
0.9056848720811803
  0
MTEXT
  5
3F5
102
{ACAD_XDICTIONARY
360
3F6
102
}
330
1F
100
AcDbEntity
  8
0
 48
0.1
100
AcDbMText
 10
-280.5387698016934
 20
102.2232182671421
 30
1629.189207598579
 40
22.12639961839792
 41
568.3107978973716
 46
0.0
 71
     1
 72
     5
  1
\pi208.72574;{\fMontserrat|b0|i0|c0|p0;\H0.56017x;lifewithpearl.com\P\pi233.00346;\H0.72222x;#hometogether}
 73
     1
 44
1.0
1001
ACAD
1000
ACAD_MTEXT_COLUMN_INFO_BEGIN
1070
    75
1070
     2
1070
    79
1070
     0
1070
    76
1070
     1
1070
    78
1070
     0
1070
    48
1040
568.3107978973716
1070
    49
1040
17.21465737619431
1070
    50
1070
     1
1040
57.88938673961816
1000
ACAD_MTEXT_COLUMN_INFO_END
  0
MTEXT
  5
401
330
1F
100
AcDbEntity
  8
0
100
AcDbMText
 10
-240.0408598587839
 20
-88.40174794413114
 30
3239.115693602797
 40
5.398996180213615
 41
321.6837959342221
 46
0.0
 71
     1
 72
     5
  3
{\fArial|b0|i0|c0|p34;NOTE:\PDimensions may vary slightly. Please verify the exact size of the sink before cutting. \PThe manufacturer is not responsible for cutting errors.\P\PNOTE:\PLes dimensions peuvent varier légèrement d'un dissipateur à couler
  1
. \PVérifiez la taille exacte de l'évier avant de couper. \Pfabricant n'est pas responsable des erreurs de coupe.\P\P\PThe sink wall is flush to the edge of the countertop opening.}
 73
     1
 44
1.0
  0
MTEXT
  5
402
102
{ACAD_XDICTIONARY
360
403
102
}
330
1F
100
AcDbEntity
  8
0
370
    70
100
AcDbMText
 10
-240.5114806671905
 20
-44.95611968605793
 30
3239.115693602797
 40
6.251325708116224
 41
193.2505481946542
 46
33.73599178435767
 71
     1
 72
     1
  1
{\fAbhaya Libre|b0|i0|c0|p0;\H2.41824x;VERTU - S\P\fMontserrat|b0|i0|c0|p0;\H0.5x;GVS2411}
 73
     1
 44
1.0
1001
ACAD
1000
ACAD_MTEXT_DEFINED_HEIGHT_BEGIN
1070
    46
1040
6.041922581081321
1000
ACAD_MTEXT_DEFINED_HEIGHT_END
  0
ENDSEC
  0
SECTION
  2
OBJECTS
  0
DICTIONARY
  5
C
330
0
100
AcDbDictionary
281
     1
  3
ACAD_CIP_PREVIOUS_PRODUCT_INFO
350
2C3
  3
ACAD_COLOR
350
2BE
  3
ACAD_DETAILVIEWSTYLE
350
2BA
  3
ACAD_GROUP
350
D
  3
ACAD_LAYOUT
350
1A
  3
ACAD_MATERIAL
350
43
  3
ACAD_MLEADERSTYLE
350
6B
  3
ACAD_MLINESTYLE
350
17
  3
ACAD_PLOTSETTINGS
350
19
  3
ACAD_PLOTSTYLENAME
350
E
  3
ACAD_SCALELIST
350
47
  3
ACAD_SECTIONVIEWSTYLE
350
2BB
  3
ACAD_TABLESTYLE
350
69
  3
ACAD_VISUALSTYLE
350
2A
  3
ACDB_RECOMPOSE_DATA
350
411
  3
AcDbVariableDictionary
350
27F
  3
AcDsDecomposeData
350
417
  0
DICTIONARY
  5
2E8
330
2
100
AcDbDictionary
280
     1
281
     1
  3
ACAD_LAYERSTATES
360
2E9
  0
DICTIONARY
  5
2FA
330
10
100
AcDbDictionary
280
     1
281
     1
  3
ADSK_XREC_LAYER_RECONCILED
360
2FB
  0
DICTIONARY
  5
2FC
330
6F
100
AcDbDictionary
280
     1
281
     1
  3
ADSK_XREC_LAYER_RECONCILED
360
2FD
  0
DICTIONARY
  5
3E3
330
3E2
100
AcDbDictionary
280
     1
281
     1
  0
DICTIONARY
  5
3CE
330
3CD
100
AcDbDictionary
280
     1
281
     1
  0
DICTIONARY
  5
3F6
330
3F5
100
AcDbDictionary
280
     1
281
     1
  3
ACAD_MTEXT_2008_RT
360
40F
  0
DICTIONARY
  5
403
330
402
100
AcDbDictionary
280
     1
281
     1
  3
ACAD_MTEXT_2008_RT
360
410
  0
XRECORD
  5
2C3
102
{ACAD_REACTORS
330
C
102
}
330
C
100
AcDbXrecord
280
     1
300
ACDMAC
300
2022
300

  0
DICTIONARY
  5
2BE
102
{ACAD_REACTORS
330
C
102
}
330
C
100
AcDbDictionary
281
     1
  0
DICTIONARY
  5
2BA
102
{ACAD_REACTORS
330
C
102
}
330
C
100
AcDbDictionary
281
     1
  3
Imperial24
350
2C0
  0
DICTIONARY
  5
D
102
{ACAD_REACTORS
330
C
102
}
330
C
100
AcDbDictionary
281
     1
  0
DICTIONARY
  5
1A
102
{ACAD_REACTORS
330
C
102
}
330
C
100
AcDbDictionary
281
     1
  3
Layout1
350
1E
  3
Layout2
350
26
  3
Model
350
22
  0
DICTIONARY
  5
43
102
{ACAD_REACTORS
330
C
102
}
330
C
100
AcDbDictionary
281
     1
  3
ByBlock
350
45
  3
ByLayer
350
44
  3
Global
350
46
  0
DICTIONARY
  5
6B
102
{ACAD_REACTORS
330
C
102
}
330
C
100
AcDbDictionary
281
     1
  3
Standard
350
6C
  0
DICTIONARY
  5
17
102
{ACAD_REACTORS
330
C
102
}
330
C
100
AcDbDictionary
281
     1
  3
Standard
350
18
  0
DICTIONARY
  5
19
102
{ACAD_REACTORS
330
C
102
}
330
C
100
AcDbDictionary
281
     1
  0
ACDBDICTIONARYWDFLT
  5
E
102
{ACAD_REACTORS
330
C
102
}
330
C
100
AcDbDictionary
281
     1
  3
Normal
350
F
100
AcDbDictionaryWithDefault
340
F
  0
DICTIONARY
  5
47
102
{ACAD_REACTORS
330
C
102
}
330
C
100
AcDbDictionary
281
     1
  3
A0
350
48
  3
A1
350
49
  3
A2
350
4A
  3
A3
350
4B
  3
A4
350
4C
  3
A5
350
4D
  3
A6
350
4E
  3
A7
350
4F
  3
A8
350
50
  3
A9
350
51
  3
B0
350
52
  3
B1
350
53
  3
B2
350
54
  3
B3
350
55
  3
B4
350
56
  3
B5
350
57
  3
B6
350
58
  3
B7
350
59
  3
B8
350
5A
  3
B9
350
5B
  3
C0
350
5C
  3
C1
350
5D
  3
C2
350
5E
  3
C3
350
5F
  3
C4
350
60
  3
C5
350
61
  3
C6
350
62
  3
C7
350
63
  3
C8
350
64
  3
C9
350
65
  3
D0
350
66
  3
D1
350
67
  3
D2
350
68
  0
DICTIONARY
  5
2BB
102
{ACAD_REACTORS
330
C
102
}
330
C
100
AcDbDictionary
281
     1
  3
Imperial24
350
2BF
  0
DICTIONARY
  5
69
102
{ACAD_REACTORS
330
C
102
}
330
C
100
AcDbDictionary
281
     1
  3
Standard
350
6A
  0
DICTIONARY
  5
2A
102
{ACAD_REACTORS
330
C
102
}
330
C
100
AcDbDictionary
281
     1
  3
2dWireframe
350
2F
  3
Basic
350
32
  3
Brighten
350
36
  3
ColorChange
350
3A
  3
Conceptual
350
34
  3
Dim
350
35
  3
EdgeColorOff
350
3D
  3
Facepattern
350
39
  3
Flat
350
2B
  3
FlatWithEdges
350
2C
  3
Gouraud
350
2D
  3
GouraudWithEdges
350
2E
  3
Hidden
350
31
  3
JitterOff
350
3B
  3
Linepattern
350
38
  3
OverhangOff
350
3C
  3
Realistic
350
33
  3
Shaded
350
42
  3
Shaded with edges
350
41
  3
Shades of Gray
350
3E
  3
Sketchy
350
3F
  3
Thicken
350
37
  3
Wireframe
350
30
  3
X-Ray
350
40
  0
XRECORD
  5
411
102
{ACAD_REACTORS
330
C
102
}
330
C
100
AcDbXrecord
280
     1
 90
        1
330
6A
330
3F5
330
402
  0
DICTIONARY
  5
27F
102
{ACAD_REACTORS
330
C
102
}
330
C
100
AcDbDictionary
281
     1
  3
CANNOSCALE
350
280
  3
CMLEADERSTYLE
350
2B9
  3
CTABLESTYLE
350
2B8
  3
CVIEWDETAILSTYLE
350
327
  3
CVIEWSECTIONSTYLE
350
328
  3
DGNFRAME
350
32B
  3
LAYEREVAL
350
40C
  3
LAYERNOTIFY
350
40D
  3
LIGHTINGUNITS
350
32A
  3
MSLTSCALE
350
329
  0
DICTIONARY
  5
417
102
{ACAD_REACTORS
330
C
102
}
330
C
100
AcDbDictionary
281
     1
  3
AcDsRecords
350
419
  3
AcDsSchemas
350
418
1001
ACAD
1070
     2
  0
DICTIONARY
  5
2E9
102
{ACAD_REACTORS
330
2E8
102
}
330
2E8
100
AcDbDictionary
281
     1
  0
XRECORD
  5
2FB
102
{ACAD_REACTORS
330
2FA
102
}
330
2FA
100
AcDbXrecord
280
     1
290
     1
  0
XRECORD
  5
2FD
102
{ACAD_REACTORS
330
2FC
102
}
330
2FC
100
AcDbXrecord
280
     1
290
     1
  0
XRECORD
  5
40F
102
{ACAD_REACTORS
330
3F6
102
}
330
3F6
100
AcDbXrecord
280
     1
 40
486289.0
  1
\pxqc;{\fMontserrat|b0|i0|c0|p0;\H0.56017x;lifewithpearl.com\P\H0.72222x;#hometogether}
  0
XRECORD
  5
410
102
{ACAD_REACTORS
330
403
102
}
330
403
100
AcDbXrecord
280
     1
 40
333749.0
  1
\pxql;{\fAbhaya Libre|b0|i0|c0|p0;\H2.41824x;VERTU - S\P\fMontserrat|b0|i0|c0|p0;\H0.5x;GVS2411}
  0
ACDBDETAILVIEWSTYLE
  5
2C0
102
{ACAD_XDICTIONARY
360
44C
102
}
102
{ACAD_REACTORS
330
2BA
102
}
330
2BA
100
AcDbModelDocViewStyle
 70
     0
  3
Imperial24
290
     0
100
AcDbDetailViewStyle
 70
     0
 71
     0
 90
        3
 71
     1
340
11
 62
   256
 40
0.24
340
0
 62
   256
 40
0.24
300

 40
0.36
280
     3
 71
     2
340
16
 90
       25
 62
   256
 71
     3
340
11
 62
   256
 40
0.24
 90
        1
 40
0.75
 90
        1
300
%<\AcVar ViewType \f "%tc1">% %<\AcVar ViewDetailId>%\PSCALE %<\AcVar ViewScale \f "%sn">%
 71
     4
340
16
 90
       25
 62
   256
340
16
 90
       25
 62
   256
280
     0
  0
LAYOUT
  5
1E
102
{ACAD_REACTORS
330
1A
102
}
330
1A
100
AcDbPlotSettings
  1

  2
none_device
  4

  6

 40
0.0
 41
0.0
 42
0.0
 43
0.0
 44
0.0
 45
0.0
 46
0.0
 47
0.0
 48
0.0
 49
0.0
140
0.0
141
0.0
142
1.0
143
1.0
 70
   688
 72
     0
 73
     0
 74
     5
  7

 75
    16
147
1.0
 76
     0
 77
     2
 78
   300
148
0.0
149
0.0
100
AcDbLayout
  1
Layout1
 70
     1
 71
     1
 10
0.0
 20
0.0
 11
12.0
 21
9.0
 12
0.0
 22
0.0
 32
0.0
 14
1.000000000000000E+20
 24
1.000000000000000E+20
 34
1.000000000000000E+20
 15
-1.000000000000000E+20
 25
-1.000000000000000E+20
 35
-1.000000000000000E+20
146
0.0
 13
0.0
 23
0.0
 33
0.0
 16
1.0
 26
0.0
 36
0.0
 17
0.0
 27
1.0
 37
0.0
 76
     0
330
1B
  0
LAYOUT
  5
26
102
{ACAD_REACTORS
330
1A
102
}
330
1A
100
AcDbPlotSettings
  1

  2
none_device
  4

  6

 40
0.0
 41
0.0
 42
0.0
 43
0.0
 44
0.0
 45
0.0
 46
0.0
 47
0.0
 48
0.0
 49
0.0
140
0.0
141
0.0
142
1.0
143
1.0
 70
   688
 72
     0
 73
     0
 74
     5
  7

 75
    16
147
1.0
 76
     0
 77
     2
 78
   300
148
0.0
149
0.0
100
AcDbLayout
  1
Layout2
 70
     1
 71
     2
 10
0.0
 20
0.0
 11
0.0
 21
0.0
 12
0.0
 22
0.0
 32
0.0
 14
0.0
 24
0.0
 34
0.0
 15
0.0
 25
0.0
 35
0.0
146
0.0
 13
0.0
 23
0.0
 33
0.0
 16
1.0
 26
0.0
 36
0.0
 17
0.0
 27
1.0
 37
0.0
 76
     0
330
23
  0
LAYOUT
  5
22
102
{ACAD_REACTORS
330
1A
102
}
330
1A
100
AcDbPlotSettings
  1

  2
none_device
  4
Letter_(8.50_x_11.00_Inches)
  6

 40
6.349999999999998
 41
6.349999999999998
 42
6.350005079999998
 43
6.350005079999998
 44
215.9
 45
279.4
 46
0.0
 47
0.0
 48
0.0
 49
0.0
140
0.0
141
0.0
142
1.0
143
1.0
 70
  1712
 72
     0
 73
     0
 74
     0
  7

 75
     0
147
1.0
 76
     0
 77
     2
 78
   300
148
0.0
149
0.0
100
AcDbLayout
  1
Model
 70
     1
 71
     0
 10
0.0
 20
0.0
 11
12.0
 21
9.0
 12
0.0
 22
0.0
 32
0.0
 14
-271.9377
 24
-210.5227
 34
0.0
 15
276.2982
 25
195.132
 35
0.0
146
0.0
 13
0.0
 23
0.0
 33
0.0
 16
1.0
 26
0.0
 36
0.0
 17
0.0
 27
1.0
 37
0.0
 76
     0
330
1F
331
29
  0
MATERIAL
  5
45
102
{ACAD_XDICTIONARY
360
36E
102
}
102
{ACAD_REACTORS
330
43
102
}
330
43
100
AcDbMaterial
  1
ByBlock
  0
MATERIAL
  5
44
102
{ACAD_XDICTIONARY
360
36C
102
}
102
{ACAD_REACTORS
330
43
102
}
330
43
100
AcDbMaterial
  1
ByLayer
  0
MATERIAL
  5
46
102
{ACAD_XDICTIONARY
360
370
102
}
102
{ACAD_REACTORS
330
43
102
}
330
43
100
AcDbMaterial
  1
Global
  0
MLEADERSTYLE
  5
6C
102
{ACAD_REACTORS
330
6B
102
}
330
6B
100
AcDbMLeaderStyle
179
     2
170
     2
171
     1
172
     0
 90
        2
 40
0.0
 41
0.0
173
     1
 91
-1056964608
340
14
 92
       -2
290
     1
 42
0.09
291
     1
 43
0.36
  3
Standard
 44
0.18
300

342
11
174
     1
178
     6
175
     1
176
     0
 93
-1056964608
 45
0.18
292
     0
297
     0
 46
0.18
 94
-1056964608
 47
1.0
 49
1.0
140
1.0
293
     1
141
0.0
294
     1
177
     0
142
1.0
295
     0
296
     0
143
0.125
271
     0
272
     9
273
     9
1001
ACAD_MLEADERVER
1070
     2
  0
MLINESTYLE
  5
18
102
{ACAD_REACTORS
330
17
102
}
330
17
100
AcDbMlineStyle
  2
STANDARD
 70
     0
  3

 62
   256
 51
90.0
 52
90.0
 71
     2
 49
0.5
 62
   256
  6
BYLAYER
 49
-0.5
 62
   256
  6
BYLAYER
  0
ACDBPLACEHOLDER
  5
F
102
{ACAD_REACTORS
330
E
102
}
330
E
  0
SCALE
  5
48
102
{ACAD_REACTORS
330
47
102
}
330
47
100
AcDbScale
 70
     0
300
1:1
140
1.0
141
1.0
290
     1
  0
SCALE
  5
49
102
{ACAD_REACTORS
330
47
102
}
330
47
100
AcDbScale
 70
     0
300
1:2
140
1.0
141
2.0
290
     0
  0
SCALE
  5
4A
102
{ACAD_REACTORS
330
47
102
}
330
47
100
AcDbScale
 70
     0
300
1:4
140
1.0
141
4.0
290
     0
  0
SCALE
  5
4B
102
{ACAD_REACTORS
330
47
102
}
330
47
100
AcDbScale
 70
     0
300
1:5
140
1.0
141
5.0
290
     0
  0
SCALE
  5
4C
102
{ACAD_REACTORS
330
47
102
}
330
47
100
AcDbScale
 70
     0
300
1:8
140
1.0
141
8.0
290
     0
  0
SCALE
  5
4D
102
{ACAD_REACTORS
330
47
102
}
330
47
100
AcDbScale
 70
     0
300
1:10
140
1.0
141
10.0
290
     0
  0
SCALE
  5
4E
102
{ACAD_REACTORS
330
47
102
}
330
47
100
AcDbScale
 70
     0
300
1:16
140
1.0
141
16.0
290
     0
  0
SCALE
  5
4F
102
{ACAD_REACTORS
330
47
102
}
330
47
100
AcDbScale
 70
     0
300
1:20
140
1.0
141
20.0
290
     0
  0
SCALE
  5
50
102
{ACAD_REACTORS
330
47
102
}
330
47
100
AcDbScale
 70
     0
300
1:30
140
1.0
141
30.0
290
     0
  0
SCALE
  5
51
102
{ACAD_REACTORS
330
47
102
}
330
47
100
AcDbScale
 70
     0
300
1:40
140
1.0
141
40.0
290
     0
  0
SCALE
  5
52
102
{ACAD_REACTORS
330
47
102
}
330
47
100
AcDbScale
 70
     0
300
1:50
140
1.0
141
50.0
290
     0
  0
SCALE
  5
53
102
{ACAD_REACTORS
330
47
102
}
330
47
100
AcDbScale
 70
     0
300
1:100
140
1.0
141
100.0
290
     0
  0
SCALE
  5
54
102
{ACAD_REACTORS
330
47
102
}
330
47
100
AcDbScale
 70
     0
300
2:1
140
2.0
141
1.0
290
     0
  0
SCALE
  5
55
102
{ACAD_REACTORS
330
47
102
}
330
47
100
AcDbScale
 70
     0
300
4:1
140
4.0
141
1.0
290
     0
  0
SCALE
  5
56
102
{ACAD_REACTORS
330
47
102
}
330
47
100
AcDbScale
 70
     0
300
8:1
140
8.0
141
1.0
290
     0
  0
SCALE
  5
57
102
{ACAD_REACTORS
330
47
102
}
330
47
100
AcDbScale
 70
     0
300
10:1
140
10.0
141
1.0
290
     0
  0
SCALE
  5
58
102
{ACAD_REACTORS
330
47
102
}
330
47
100
AcDbScale
 70
     0
300
100:1
140
100.0
141
1.0
290
     0
  0
SCALE
  5
59
102
{ACAD_REACTORS
330
47
102
}
330
47
100
AcDbScale
 70
     0
300
1/128" = 1'-0"
140
0.0078125
141
12.0
290
     0
  0
SCALE
  5
5A
102
{ACAD_REACTORS
330
47
102
}
330
47
100
AcDbScale
 70
     0
300
1/64" = 1'-0"
140
0.015625
141
12.0
290
     0
  0
SCALE
  5
5B
102
{ACAD_REACTORS
330
47
102
}
330
47
100
AcDbScale
 70
     0
300
1/32" = 1'-0"
140
0.03125
141
12.0
290
     0
  0
SCALE
  5
5C
102
{ACAD_REACTORS
330
47
102
}
330
47
100
AcDbScale
 70
     0
300
1/16" = 1'-0"
140
0.0625
141
12.0
290
     0
  0
SCALE
  5
5D
102
{ACAD_REACTORS
330
47
102
}
330
47
100
AcDbScale
 70
     0
300
3/32" = 1'-0"
140
0.09375
141
12.0
290
     0
  0
SCALE
  5
5E
102
{ACAD_REACTORS
330
47
102
}
330
47
100
AcDbScale
 70
     0
300
1/8" = 1'-0"
140
0.125
141
12.0
290
     0
  0
SCALE
  5
5F
102
{ACAD_REACTORS
330
47
102
}
330
47
100
AcDbScale
 70
     0
300
3/16" = 1'-0"
140
0.1875
141
12.0
290
     0
  0
SCALE
  5
60
102
{ACAD_REACTORS
330
47
102
}
330
47
100
AcDbScale
 70
     0
300
1/4" = 1'-0"
140
0.25
141
12.0
290
     0
  0
SCALE
  5
61
102
{ACAD_REACTORS
330
47
102
}
330
47
100
AcDbScale
 70
     0
300
3/8" = 1'-0"
140
0.375
141
12.0
290
     0
  0
SCALE
  5
62
102
{ACAD_REACTORS
330
47
102
}
330
47
100
AcDbScale
 70
     0
300
1/2" = 1'-0"
140
0.5
141
12.0
290
     0
  0
SCALE
  5
63
102
{ACAD_REACTORS
330
47
102
}
330
47
100
AcDbScale
 70
     0
300
3/4" = 1'-0"
140
0.75
141
12.0
290
     0
  0
SCALE
  5
64
102
{ACAD_REACTORS
330
47
102
}
330
47
100
AcDbScale
 70
     0
300
1" = 1'-0"
140
1.0
141
12.0
290
     0
  0
SCALE
  5
65
102
{ACAD_REACTORS
330
47
102
}
330
47
100
AcDbScale
 70
     0
300
1-1/2" = 1'-0"
140
1.5
141
12.0
290
     0
  0
SCALE
  5
66
102
{ACAD_REACTORS
330
47
102
}
330
47
100
AcDbScale
 70
     0
300
3" = 1'-0"
140
3.0
141
12.0
290
     0
  0
SCALE
  5
67
102
{ACAD_REACTORS
330
47
102
}
330
47
100
AcDbScale
 70
     0
300
6" = 1'-0"
140
6.0
141
12.0
290
     0
  0
SCALE
  5
68
102
{ACAD_REACTORS
330
47
102
}
330
47
100
AcDbScale
 70
     0
300
1'-0" = 1'-0"
140
12.0
141
12.0
290
     0
  0
ACDBSECTIONVIEWSTYLE
  5
2BF
102
{ACAD_XDICTIONARY
360
44A
102
}
102
{ACAD_REACTORS
330
2BB
102
}
330
2BB
100
AcDbModelDocViewStyle
 70
     0
  3
Imperial24
290
     0
100
AcDbSectionViewStyle
 70
     0
 71
     0
 90
       78
 71
     1
340
11
 62
   256
 40
0.24
340
0
340
0
 62
   256
 40
0.24
300
I, O, Q, S, X, Z
 40
0.48
 90
        3
 40
0.18
 90
        1
 71
     2
340
16
 90
       25
 62
   256
340
16
 90
       50
 62
   256
 40
0.24
 40
0.0
 40
0.24
 71
     3
340
11
 62
   256
 40
0.24
 90
        1
 40
0.75
 90
        1
300
%<\AcVar ViewType \f "%tc1">% %<\AcVar ViewSectionStartId>%-%<\AcVar ViewSectionEndId>%\PSCALE %<\AcVar ViewScale \f "%sn">%
 71
     4
 62
   256
 62
   257
300
ANSI31
 40
1.0
 90
        0
290
     0
290
     0
 90
        6
 40
0.0
 40
1.570796326794896
 40
0.2617993877991494
 40
1.308996938995747
 40
-0.2617993877991494
 40
1.832595714594045
  0
TABLESTYLE
  5
6A
102
{ACAD_XDICTIONARY
360
2B2
102
}
102
{ACAD_REACTORS
330
69
102
}
330
69
100
AcDbTableStyle
280
     0
  3
Standard
 70
     0
 71
     0
 40
0.06
 41
0.06
280
     0
281
     0
  7
Standard
140
0.18
170
     2
 62
     0
 63
     7
283
     0
 90
        4
 91
        0
  1

274
    -2
284
     1
 64
     0
275
    -2
285
     1
 65
     0
276
    -2
286
     1
 66
     0
277
    -2
287
     1
 67
     0
278
    -2
288
     1
 68
     0
279
    -2
289
     1
 69
     0
  7
Standard
140
0.25
170
     5
 62
     0
 63
     7
283
     0
 90
        4
 91
        0
  1

274
    -2
284
     1
 64
     0
275
    -2
285
     1
 65
     0
276
    -2
286
     1
 66
     0
277
    -2
287
     1
 67
     0
278
    -2
288
     1
 68
     0
279
    -2
289
     1
 69
     0
  7
Standard
140
0.18
170
     5
 62
     0
 63
     7
283
     0
 90
        4
 91
        0
  1

274
    -2
284
     1
 64
     0
275
    -2
285
     1
 65
     0
276
    -2
286
     1
 66
     0
277
    -2
287
     1
 67
     0
278
    -2
288
     1
 68
     0
279
    -2
289
     1
 69
     0
  0
VISUALSTYLE
  5
2F
102
{ACAD_XDICTIONARY
360
422
102
}
102
{ACAD_REACTORS
330
2A
102
}
330
2A
100
AcDbVisualStyle
  2

 70
     4
177
     2
291
     0
 71
     0
176
     1
 72
     2
176
     1
 73
     0
176
     1
 90
        0
176
     1
 40
0.6
176
     1
 41
30.0
176
     1
 63
     7
421
 16777215
176
     1
 74
     1
176
     1
 91
        4
176
     1
 64
     7
176
     1
 65
   257
176
     1
 75
     1
176
     1
175
     1
176
     1
 42
1.0
176
     1
 92
        0
176
     1
 66
   257
176
     1
 43
1.0
176
     1
 76
     1
176
     1
 77
     6
176
     1
 78
     2
176
     1
 67
     7
176
     1
 79
     5
176
     1
170
     0
176
     1
171
     0
176
     1
290
     0
176
     1
 93
        1
176
     1
 44
0.0
176
     1
173
     0
176
     1
1001
ACAD
1000
AcDbSavedByObjectVersion
1070
     0
  0
VISUALSTYLE
  5
32
102
{ACAD_XDICTIONARY
360
428
102
}
102
{ACAD_REACTORS
330
2A
102
}
330
2A
100
AcDbVisualStyle
  2

 70
     7
177
     2
291
     1
 71
     1
176
     1
 72
     0
176
     1
 73
     1
176
     1
 90
        0
176
     1
 40
0.6
176
     1
 41
30.0
176
     1
 63
     7
421
 16777215
176
     1
 74
     0
176
     1
 91
        4
176
     1
 64
     7
176
     1
 65
   257
176
     1
 75
     1
176
     1
175
     1
176
     1
 42
1.0
176
     1
 92
        8
176
     1
 66
     7
176
     1
 43
1.0
176
     1
 76
     1
176
     1
 77
     6
176
     1
 78
     2
176
     1
 67
     7
176
     1
 79
     5
176
     1
170
     0
176
     1
171
     0
176
     1
290
     0
176
     1
 93
        1
176
     1
 44
0.0
176
     1
173
     0
176
     1
1001
ACAD
1000
AcDbSavedByObjectVersion
1070
     0
  0
VISUALSTYLE
  5
36
102
{ACAD_XDICTIONARY
360
430
102
}
102
{ACAD_REACTORS
330
2A
102
}
330
2A
100
AcDbVisualStyle
  2

 70
    12
177
     2
291
     1
 71
     2
176
     1
 72
     2
176
     1
 73
     0
176
     1
 90
        0
176
     1
 40
0.6
176
     1
 41
30.0
176
     1
 63
     7
421
 16777215
176
     1
 74
     1
176
     1
 91
        4
176
     1
 64
     7
176
     1
 65
   257
176
     1
 75
     1
176
     1
175
     1
176
     1
 42
1.0
176
     1
 92
        8
176
     1
 66
     7
176
     1
 43
1.0
176
     1
 76
     1
176
     1
 77
     6
176
     1
 78
     2
176
     1
 67
     7
176
     1
 79
     5
176
     1
170
     0
176
     1
171
     0
176
     1
290
     0
176
     1
 93
        1
176
     1
 44
50.0
176
     1
173
     0
176
     1
1001
ACAD
1000
AcDbSavedByObjectVersion
1070
     0
  0
VISUALSTYLE
  5
3A
102
{ACAD_XDICTIONARY
360
438
102
}
102
{ACAD_REACTORS
330
2A
102
}
330
2A
100
AcDbVisualStyle
  2

 70
    16
177
     2
291
     1
 71
     2
176
     1
 72
     2
176
     1
 73
     3
176
     1
 90
        0
176
     1
 40
0.6
176
     1
 41
30.0
176
     1
 63
     8
421
  8421504
176
     1
 74
     1
176
     1
 91
        4
176
     1
 64
     7
176
     1
 65
   257
176
     1
 75
     1
176
     1
175
     1
176
     1
 42
1.0
176
     1
 92
        8
176
     1
 66
     8
424
  8421504
176
     1
 43
1.0
176
     1
 76
     1
176
     1
 77
     6
176
     1
 78
     2
176
     1
 67
     7
176
     1
 79
     5
176
     1
170
     0
176
     1
171
     0
176
     1
290
     0
176
     1
 93
        1
176
     1
 44
0.0
176
     1
173
     0
176
     1
1001
ACAD
1000
AcDbSavedByObjectVersion
1070
     0
  0
VISUALSTYLE
  5
34
102
{ACAD_XDICTIONARY
360
42C
102
}
102
{ACAD_REACTORS
330
2A
102
}
330
2A
100
AcDbVisualStyle
  2

 70
     9
177
     2
291
     0
 71
     3
176
     1
 72
     2
176
     1
 73
     0
176
     1
 90
        0
176
     1
 40
0.6
176
     1
 41
30.0
176
     1
 63
     7
421
 16777215
176
     1
 74
     2
176
     1
 91
        2
176
     1
 64
     7
176
     1
 65
   257
176
     1
 75
     1
176
     1
175
     1
176
     1
 42
179.0
176
     1
 92
        8
176
     1
 66
     7
176
     1
 43
1.0
176
     1
 76
     1
176
     1
 77
     6
176
     1
 78
     2
176
     1
 67
     7
176
     1
 79
     3
176
     1
170
     0
176
     1
171
     0
176
     1
290
     0
176
     1
 93
        1
176
     1
 44
0.0
176
     1
173
     0
176
     1
1001
ACAD
1000
AcDbSavedByObjectVersion
1070
     0
  0
VISUALSTYLE
  5
35
102
{ACAD_XDICTIONARY
360
42E
102
}
102
{ACAD_REACTORS
330
2A
102
}
330
2A
100
AcDbVisualStyle
  2

 70
    11
177
     2
291
     1
 71
     2
176
     1
 72
     2
176
     1
 73
     0
176
     1
 90
        0
176
     1
 40
0.6
176
     1
 41
30.0
176
     1
 63
     7
421
 16777215
176
     1
 74
     1
176
     1
 91
        4
176
     1
 64
     7
176
     1
 65
   257
176
     1
 75
     1
176
     1
175
     1
176
     1
 42
1.0
176
     1
 92
        8
176
     1
 66
     7
176
     1
 43
1.0
176
     1
 76
     1
176
     1
 77
     6
176
     1
 78
     2
176
     1
 67
     7
176
     1
 79
     5
176
     1
170
     0
176
     1
171
     0
176
     1
290
     0
176
     1
 93
        1
176
     1
 44
-50.0
176
     1
173
     0
176
     1
1001
ACAD
1000
AcDbSavedByObjectVersion
1070
     0
  0
VISUALSTYLE
  5
3D
102
{ACAD_XDICTIONARY
360
43E
102
}
102
{ACAD_REACTORS
330
2A
102
}
330
2A
100
AcDbVisualStyle
  2

 70
    22
177
     2
291
     1
 71
     2
176
     0
 72
     2
176
     0
 73
     0
176
     0
 90
        0
176
     0
 40
0.6
176
     0
 41
30.0
176
     0
 63
     7
421
 16777215
176
     0
 74
     1
176
     0
 91
        4
176
     0
 64
     7
176
     0
 65
   257
176
     0
 75
     1
176
     0
175
     1
176
     0
 42
1.0
176
     0
 92
        8
176
     2
 66
     7
176
     0
 43
1.0
176
     0
 76
     1
176
     0
 77
     6
176
     0
 78
     2
176
     0
 67
     7
176
     0
 79
     5
176
     0
170
     0
176
     0
171
     0
176
     0
290
     0
176
     0
 93
        1
176
     0
 44
0.0
176
     0
173
     0
176
     0
1001
ACAD
1000
AcDbSavedByObjectVersion
1070
     0
  0
VISUALSTYLE
  5
39
102
{ACAD_XDICTIONARY
360
436
102
}
102
{ACAD_REACTORS
330
2A
102
}
330
2A
100
AcDbVisualStyle
  2

 70
    15
177
     2
291
     1
 71
     2
176
     1
 72
     2
176
     1
 73
     0
176
     1
 90
        0
176
     1
 40
0.6
176
     1
 41
30.0
176
     1
 63
     7
421
 16777215
176
     1
 74
     1
176
     1
 91
        4
176
     1
 64
     7
176
     1
 65
   257
176
     1
 75
     1
176
     1
175
     1
176
     1
 42
1.0
176
     1
 92
        8
176
     1
 66
     7
176
     1
 43
1.0
176
     1
 76
     1
176
     1
 77
     6
176
     1
 78
     2
176
     1
 67
     7
176
     1
 79
     5
176
     1
170
     0
176
     1
171
     0
176
     1
290
     0
176
     1
 93
        1
176
     1
 44
0.0
176
     1
173
     0
176
     1
1001
ACAD
1000
AcDbSavedByObjectVersion
1070
     0
  0
VISUALSTYLE
  5
2B
102
{ACAD_XDICTIONARY
360
41A
102
}
102
{ACAD_REACTORS
330
2A
102
}
330
2A
100
AcDbVisualStyle
  2

 70
     0
177
     2
291
     1
 71
     2
176
     1
 72
     1
176
     1
 73
     1
176
     1
 90
        2
176
     1
 40
0.6
176
     1
 41
30.0
176
     1
 63
     7
421
 16777215
176
     1
 74
     0
176
     1
 91
        0
176
     1
 64
     7
176
     1
 65
   257
176
     1
 75
     1
176
     1
175
     1
176
     1
 42
1.0
176
     1
 92
        8
176
     1
 66
     7
176
     1
 43
1.0
176
     1
 76
     1
176
     1
 77
     6
176
     1
 78
     2
176
     1
 67
     7
176
     1
 79
     5
176
     1
170
     0
176
     1
171
     0
176
     1
290
     0
176
     1
 93
       13
176
     1
 44
0.0
176
     1
173
     0
176
     1
1001
ACAD
1000
AcDbSavedByObjectVersion
1070
     0
  0
VISUALSTYLE
  5
2C
102
{ACAD_XDICTIONARY
360
41C
102
}
102
{ACAD_REACTORS
330
2A
102
}
330
2A
100
AcDbVisualStyle
  2

 70
     1
177
     2
291
     1
 71
     2
176
     1
 72
     1
176
     1
 73
     1
176
     1
 90
        2
176
     1
 40
0.6
176
     1
 41
30.0
176
     1
 63
     7
421
 16777215
176
     1
 74
     1
176
     1
 91
        0
176
     1
 64
     7
176
     1
 65
   257
176
     1
 75
     1
176
     1
175
     1
176
     1
 42
1.0
176
     1
 92
        0
176
     1
 66
   257
176
     1
 43
1.0
176
     1
 76
     1
176
     1
 77
     6
176
     1
 78
     2
176
     1
 67
     7
176
     1
 79
     5
176
     1
170
     0
176
     1
171
     0
176
     1
290
     0
176
     1
 93
       13
176
     1
 44
0.0
176
     1
173
     0
176
     1
1001
ACAD
1000
AcDbSavedByObjectVersion
1070
     0
  0
VISUALSTYLE
  5
2D
102
{ACAD_XDICTIONARY
360
41E
102
}
102
{ACAD_REACTORS
330
2A
102
}
330
2A
100
AcDbVisualStyle
  2

 70
     2
177
     2
291
     1
 71
     2
176
     1
 72
     2
176
     1
 73
     1
176
     1
 90
        2
176
     1
 40
0.6
176
     1
 41
30.0
176
     1
 63
     7
421
 16777215
176
     1
 74
     0
176
     1
 91
        0
176
     1
 64
     7
176
     1
 65
   257
176
     1
 75
     1
176
     1
175
     1
176
     1
 42
1.0
176
     1
 92
        0
176
     1
 66
     7
176
     1
 43
1.0
176
     1
 76
     1
176
     1
 77
     6
176
     1
 78
     2
176
     1
 67
     7
176
     1
 79
     5
176
     1
170
     0
176
     1
171
     0
176
     1
290
     0
176
     1
 93
       13
176
     1
 44
0.0
176
     1
173
     0
176
     1
1001
ACAD
1000
AcDbSavedByObjectVersion
1070
     0
  0
VISUALSTYLE
  5
2E
102
{ACAD_XDICTIONARY
360
420
102
}
102
{ACAD_REACTORS
330
2A
102
}
330
2A
100
AcDbVisualStyle
  2

 70
     3
177
     2
291
     1
 71
     2
176
     1
 72
     2
176
     1
 73
     1
176
     1
 90
        2
176
     1
 40
0.6
176
     1
 41
30.0
176
     1
 63
     7
421
 16777215
176
     1
 74
     1
176
     1
 91
        0
176
     1
 64
     7
176
     1
 65
   257
176
     1
 75
     1
176
     1
175
     1
176
     1
 42
1.0
176
     1
 92
        0
176
     1
 66
   257
176
     1
 43
1.0
176
     1
 76
     1
176
     1
 77
     6
176
     1
 78
     2
176
     1
 67
     7
176
     1
 79
     5
176
     1
170
     0
176
     1
171
     0
176
     1
290
     0
176
     1
 93
       13
176
     1
 44
0.0
176
     1
173
     0
176
     1
1001
ACAD
1000
AcDbSavedByObjectVersion
1070
     0
  0
VISUALSTYLE
  5
31
102
{ACAD_XDICTIONARY
360
426
102
}
102
{ACAD_REACTORS
330
2A
102
}
330
2A
100
AcDbVisualStyle
  2

 70
     6
177
     2
291
     0
 71
     1
176
     1
 72
     2
176
     1
 73
     2
176
     1
 90
        0
176
     1
 40
0.6
176
     1
 41
30.0
176
     1
 63
     7
421
 16777215
176
     1
 74
     2
176
     1
 91
        2
176
     1
 64
     7
176
     1
 65
   257
176
     1
 75
     2
176
     1
175
     1
176
     1
 42
40.0
176
     1
 92
        0
176
     1
 66
   257
176
     1
 43
1.0
176
     1
 76
     1
176
     1
 77
     6
176
     1
 78
     2
176
     1
 67
     7
176
     1
 79
     3
176
     1
170
     0
176
     1
171
     0
176
     1
290
     0
176
     1
 93
        1
176
     1
 44
0.0
176
     1
173
     0
176
     1
1001
ACAD
1000
AcDbSavedByObjectVersion
1070
     0
  0
VISUALSTYLE
  5
3B
102
{ACAD_XDICTIONARY
360
43A
102
}
102
{ACAD_REACTORS
330
2A
102
}
330
2A
100
AcDbVisualStyle
  2

 70
    20
177
     2
291
     1
 71
     2
176
     0
 72
     2
176
     0
 73
     0
176
     0
 90
        0
176
     0
 40
0.6
176
     0
 41
30.0
176
     0
 63
     7
421
 16777215
176
     0
 74
     1
176
     0
 91
        4
176
     0
 64
     7
176
     0
 65
   257
176
     0
 75
     1
176
     0
175
     1
176
     0
 42
1.0
176
     0
 92
       10
176
     2
 66
     7
176
     0
 43
1.0
176
     0
 76
     1
176
     0
 77
     6
176
     0
 78
     2
176
     0
 67
     7
176
     0
 79
     5
176
     0
170
     0
176
     0
171
     0
176
     0
290
     0
176
     0
 93
        1
176
     0
 44
0.0
176
     0
173
     0
176
     0
1001
ACAD
1000
AcDbSavedByObjectVersion
1070
     0
  0
VISUALSTYLE
  5
38
102
{ACAD_XDICTIONARY
360
434
102
}
102
{ACAD_REACTORS
330
2A
102
}
330
2A
100
AcDbVisualStyle
  2

 70
    14
177
     2
291
     1
 71
     2
176
     1
 72
     2
176
     1
 73
     0
176
     1
 90
        0
176
     1
 40
0.6
176
     1
 41
30.0
176
     1
 63
     7
421
 16777215
176
     1
 74
     1
176
     1
 91
        4
176
     1
 64
     7
176
     1
 65
   257
176
     1
 75
     7
176
     1
175
     7
176
     1
 42
1.0
176
     1
 92
        8
176
     1
 66
     7
176
     1
 43
1.0
176
     1
 76
     1
176
     1
 77
     6
176
     1
 78
     2
176
     1
 67
     7
176
     1
 79
     5
176
     1
170
     0
176
     1
171
     0
176
     1
290
     0
176
     1
 93
        1
176
     1
 44
0.0
176
     1
173
     0
176
     1
1001
ACAD
1000
AcDbSavedByObjectVersion
1070
     0
  0
VISUALSTYLE
  5
3C
102
{ACAD_XDICTIONARY
360
43C
102
}
102
{ACAD_REACTORS
330
2A
102
}
330
2A
100
AcDbVisualStyle
  2

 70
    21
177
     2
291
     1
 71
     2
176
     0
 72
     2
176
     0
 73
     0
176
     0
 90
        0
176
     0
 40
0.6
176
     0
 41
30.0
176
     0
 63
     7
421
 16777215
176
     0
 74
     1
176
     0
 91
        4
176
     0
 64
     7
176
     0
 65
   257
176
     0
 75
     1
176
     0
175
     1
176
     0
 42
1.0
176
     0
 92
        9
176
     2
 66
     7
176
     0
 43
1.0
176
     0
 76
     1
176
     0
 77
     6
176
     0
 78
     2
176
     0
 67
     7
176
     0
 79
     5
176
     0
170
     0
176
     0
171
     0
176
     0
290
     0
176
     0
 93
        1
176
     0
 44
0.0
176
     0
173
     0
176
     0
1001
ACAD
1000
AcDbSavedByObjectVersion
1070
     0
  0
VISUALSTYLE
  5
33
102
{ACAD_XDICTIONARY
360
42A
102
}
102
{ACAD_REACTORS
330
2A
102
}
330
2A
100
AcDbVisualStyle
  2

 70
     8
177
     2
291
     0
 71
     2
176
     1
 72
     3
176
     1
 73
     0
176
     1
 90
        2
176
     1
 40
0.6
176
     1
 41
30.0
176
     1
 63
     7
421
 16777215
176
     1
 74
     0
176
     1
 91
        0
176
     1
 64
     7
176
     1
 65
   257
176
     1
 75
     1
176
     1
175
     1
176
     1
 42
1.0
176
     1
 92
        8
176
     1
 66
   257
176
     1
 43
1.0
176
     1
 76
     1
176
     1
 77
     6
176
     1
 78
     2
176
     1
 67
     7
176
     1
 79
     3
176
     1
170
     0
176
     1
171
     0
176
     1
290
     0
176
     1
 93
       13
176
     1
 44
0.0
176
     1
173
     0
176
     1
1001
ACAD
1000
AcDbSavedByObjectVersion
1070
     0
  0
VISUALSTYLE
  5
42
102
{ACAD_XDICTIONARY
360
448
102
}
102
{ACAD_REACTORS
330
2A
102
}
330
2A
100
AcDbVisualStyle
  2

 70
    27
177
     2
291
     0
 71
     2
176
     1
 72
     2
176
     1
 73
     1
176
     1
 90
        2
176
     1
 40
0.6
176
     1
 41
30.0
176
     1
 63
     7
421
 16777215
176
     1
 74
     0
176
     1
 91
        4
176
     1
 64
     7
176
     1
 65
   257
176
     1
 75
     1
176
     1
175
     1
176
     1
 42
1.0
176
     1
 92
        8
176
     1
 66
   257
176
     1
 43
1.0
176
     1
 76
     1
176
     1
 77
     6
176
     1
 78
     2
176
     1
 67
     8
425
  7895160
176
     1
 79
     3
176
     1
170
     0
176
     1
171
     0
176
     1
290
     0
176
     1
 93
        5
176
     1
 44
0.0
176
     1
173
     0
176
     1
1001
ACAD
1000
AcDbSavedByObjectVersion
1070
     0
  0
VISUALSTYLE
  5
41
102
{ACAD_XDICTIONARY
360
446
102
}
102
{ACAD_REACTORS
330
2A
102
}
330
2A
100
AcDbVisualStyle
  2

 70
    26
177
     2
291
     0
 71
     2
176
     1
 72
     2
176
     1
 73
     1
176
     1
 90
        2
176
     1
 40
0.6
176
     1
 41
30.0
176
     1
 63
     7
421
 16777215
176
     1
 74
     1
176
     1
 91
       10
176
     1
 64
     7
176
     1
 65
   257
176
     1
 75
     2
176
     1
175
     1
176
     1
 42
1.0
176
     1
 92
        8
176
     1
 66
   257
176
     1
 43
1.0
176
     1
 76
     1
176
     1
 77
     6
176
     1
 78
     2
176
     1
 67
     7
176
     1
 79
     3
176
     1
170
     0
176
     1
171
     0
176
     1
290
     0
176
     1
 93
        5
176
     1
 44
0.0
176
     1
173
     0
176
     1
1001
ACAD
1000
AcDbSavedByObjectVersion
1070
     0
  0
VISUALSTYLE
  5
3E
102
{ACAD_XDICTIONARY
360
440
102
}
102
{ACAD_REACTORS
330
2A
102
}
330
2A
100
AcDbVisualStyle
  2

 70
    23
177
     2
291
     0
 71
     2
176
     1
 72
     2
176
     1
 73
     3
176
     1
 90
        0
176
     1
 40
0.6
176
     1
 41
30.0
176
     1
 63
     7
421
 16777215
176
     1
 74
     2
176
     1
 91
        2
176
     1
 64
     7
176
     1
 65
     7
176
     1
 75
     1
176
     1
175
     1
176
     1
 42
40.0
176
     1
 92
        8
176
     1
 66
     7
176
     1
 43
1.0
176
     1
 76
     1
176
     1
 77
     6
176
     1
 78
     2
176
     1
 67
     7
176
     1
 79
     3
176
     1
170
     0
176
     1
171
     0
176
     1
290
     0
176
     1
 93
        1
176
     1
 44
0.0
176
     1
173
     0
176
     1
1001
ACAD
1000
AcDbSavedByObjectVersion
1070
     0
  0
VISUALSTYLE
  5
3F
102
{ACAD_XDICTIONARY
360
442
102
}
102
{ACAD_REACTORS
330
2A
102
}
330
2A
100
AcDbVisualStyle
  2

 70
    24
177
     2
291
     0
 71
     1
176
     1
 72
     2
176
     1
 73
     2
176
     1
 90
        0
176
     1
 40
0.6
176
     1
 41
30.0
176
     1
 63
     7
421
 16777215
176
     1
 74
     2
176
     1
 91
        2
176
     1
 64
     7
176
     1
 65
     7
176
     1
 75
     1
176
     1
175
     1
176
     1
 42
40.0
176
     1
 92
       11
176
     1
 66
     7
176
     1
 43
1.0
176
     1
 76
     1
176
     1
 77
     6
176
     1
 78
     2
176
     1
 67
     7
176
     1
 79
     6
176
     1
170
     0
176
     1
171
     0
176
     1
290
     0
176
     1
 93
        1
176
     1
 44
0.0
176
     1
173
     0
176
     1
1001
ACAD
1000
AcDbSavedByObjectVersion
1070
     0
  0
VISUALSTYLE
  5
37
102
{ACAD_XDICTIONARY
360
432
102
}
102
{ACAD_REACTORS
330
2A
102
}
330
2A
100
AcDbVisualStyle
  2

 70
    13
177
     2
291
     1
 71
     2
176
     1
 72
     2
176
     1
 73
     0
176
     1
 90
        0
176
     1
 40
0.6
176
     1
 41
30.0
176
     1
 63
     7
421
 16777215
176
     1
 74
     1
176
     1
 91
        4
176
     1
 64
     7
176
     1
 65
   257
176
     1
 75
     1
176
     1
175
     1
176
     1
 42
1.0
176
     1
 92
       12
176
     1
 66
     7
176
     1
 43
1.0
176
     1
 76
     1
176
     1
 77
     6
176
     1
 78
     2
176
     1
 67
     7
176
     1
 79
     5
176
     1
170
     0
176
     1
171
     0
176
     1
290
     0
176
     1
 93
        1
176
     1
 44
0.0
176
     1
173
     0
176
     1
1001
ACAD
1000
AcDbSavedByObjectVersion
1070
     0
  0
VISUALSTYLE
  5
30
102
{ACAD_XDICTIONARY
360
424
102
}
102
{ACAD_REACTORS
330
2A
102
}
330
2A
100
AcDbVisualStyle
  2

 70
     5
177
     2
291
     0
 71
     0
176
     1
 72
     2
176
     1
 73
     0
176
     1
 90
        0
176
     1
 40
0.6
176
     1
 41
30.0
176
     1
 63
     7
421
 16777215
176
     1
 74
     1
176
     1
 91
        4
176
     1
 64
     7
176
     1
 65
   257
176
     1
 75
     1
176
     1
175
     1
176
     1
 42
1.0
176
     1
 92
        0
176
     1
 66
   257
176
     1
 43
1.0
176
     1
 76
     1
176
     1
 77
     6
176
     1
 78
     2
176
     1
 67
     7
176
     1
 79
     3
176
     1
170
     0
176
     1
171
     0
176
     1
290
     0
176
     1
 93
        1
176
     1
 44
0.0
176
     1
173
     0
176
     1
1001
ACAD
1000
AcDbSavedByObjectVersion
1070
     0
  0
VISUALSTYLE
  5
40
102
{ACAD_XDICTIONARY
360
444
102
}
102
{ACAD_REACTORS
330
2A
102
}
330
2A
100
AcDbVisualStyle
  2

 70
    25
177
     2
291
     0
 71
     2
176
     1
 72
     2
176
     1
 73
     1
176
     1
 90
        1
176
     1
 40
0.5
176
     1
 41
30.0
176
     1
 63
     7
421
 16777215
176
     1
 74
     1
176
     1
 91
        0
176
     1
 64
     7
176
     1
 65
   257
176
     1
 75
     1
176
     1
175
     1
176
     1
 42
1.0
176
     1
 92
        8
176
     1
 66
     7
176
     1
 43
1.0
176
     1
 76
     1
176
     1
 77
     6
176
     1
 78
     2
176
     1
 67
     7
176
     1
 79
     3
176
     1
170
     0
176
     1
171
     0
176
     1
290
     0
176
     1
 93
       13
176
     1
 44
0.0
176
     1
173
     0
176
     1
1001
ACAD
1000
AcDbSavedByObjectVersion
1070
     0
  0
DICTIONARYVAR
  5
280
102
{ACAD_REACTORS
330
27F
102
}
330
27F
100
DictionaryVariables
280
     0
  1
1:1
  0
DICTIONARYVAR
  5
2B9
102
{ACAD_REACTORS
330
27F
102
}
330
27F
100
DictionaryVariables
280
     0
  1
STANDARD
  0
DICTIONARYVAR
  5
2B8
102
{ACAD_REACTORS
330
27F
102
}
330
27F
100
DictionaryVariables
280
     0
  1
STANDARD
  0
DICTIONARYVAR
  5
327
102
{ACAD_REACTORS
330
27F
102
}
330
27F
100
DictionaryVariables
280
     0
  1
Imperial24
  0
DICTIONARYVAR
  5
328
102
{ACAD_REACTORS
330
27F
102
}
330
27F
100
DictionaryVariables
280
     0
  1
Imperial24
  0
DICTIONARYVAR
  5
32B
102
{ACAD_REACTORS
330
27F
102
}
330
27F
100
DictionaryVariables
280
     0
  1
2
  0
DICTIONARYVAR
  5
40C
102
{ACAD_REACTORS
330
27F
102
}
330
27F
100
DictionaryVariables
280
     0
  1
1
  0
DICTIONARYVAR
  5
40D
102
{ACAD_REACTORS
330
27F
102
}
330
27F
100
DictionaryVariables
280
     0
  1
15
  0
DICTIONARYVAR
  5
32A
102
{ACAD_REACTORS
330
27F
102
}
330
27F
100
DictionaryVariables
280
     0
  1
2
  0
DICTIONARYVAR
  5
329
102
{ACAD_REACTORS
330
27F
102
}
330
27F
100
DictionaryVariables
280
     0
  1
1
  0
DICTIONARY
  5
419
102
{ACAD_REACTORS
330
417
102
}
330
417
100
AcDbDictionary
281
     1
  0
DICTIONARY
  5
418
102
{ACAD_REACTORS
330
417
102
}
330
417
100
AcDbDictionary
281
     1
  3
140480928998944
350
412
  3
140480928998960
350
413
  3
140480928998976
350
414
  3
140480928998992
350
415
  3
140480928999008
350
416
  0
DICTIONARY
  5
44C
330
2C0
100
AcDbDictionary
280
     1
281
     1
  3
ACAD_XREC_ROUNDTRIP
360
44D
  0
DICTIONARY
  5
36E
330
45
100
AcDbDictionary
280
     1
281
     1
  3
ACAD_XREC_ROUNDTRIP
360
36F
  0
DICTIONARY
  5
36C
330
44
100
AcDbDictionary
280
     1
281
     1
  3
ACAD_XREC_ROUNDTRIP
360
36D
  0
DICTIONARY
  5
370
330
46
100
AcDbDictionary
280
     1
281
     1
  3
ACAD_XREC_ROUNDTRIP
360
371
  0
DICTIONARY
  5
44A
330
2BF
100
AcDbDictionary
280
     1
281
     1
  3
ACAD_XREC_ROUNDTRIP
360
44B
  0
DICTIONARY
  5
2B2
330
6A
100
AcDbDictionary
280
     1
281
     1
  3
ACAD_ROUNDTRIP_2008_TABLESTYLE_CELLSTYLEMAP
360
40E
  0
DICTIONARY
  5
422
330
2F
100
AcDbDictionary
280
     1
281
     1
  3
ACAD_XREC_ROUNDTRIP
360
423
  0
DICTIONARY
  5
428
330
32
100
AcDbDictionary
280
     1
281
     1
  3
ACAD_XREC_ROUNDTRIP
360
429
  0
DICTIONARY
  5
430
330
36
100
AcDbDictionary
280
     1
281
     1
  3
ACAD_XREC_ROUNDTRIP
360
431
  0
DICTIONARY
  5
438
330
3A
100
AcDbDictionary
280
     1
281
     1
  3
ACAD_XREC_ROUNDTRIP
360
439
  0
DICTIONARY
  5
42C
330
34
100
AcDbDictionary
280
     1
281
     1
  3
ACAD_XREC_ROUNDTRIP
360
42D
  0
DICTIONARY
  5
42E
330
35
100
AcDbDictionary
280
     1
281
     1
  3
ACAD_XREC_ROUNDTRIP
360
42F
  0
DICTIONARY
  5
43E
330
3D
100
AcDbDictionary
280
     1
281
     1
  3
ACAD_XREC_ROUNDTRIP
360
43F
  0
DICTIONARY
  5
436
330
39
100
AcDbDictionary
280
     1
281
     1
  3
ACAD_XREC_ROUNDTRIP
360
437
  0
DICTIONARY
  5
41A
330
2B
100
AcDbDictionary
280
     1
281
     1
  3
ACAD_XREC_ROUNDTRIP
360
41B
  0
DICTIONARY
  5
41C
330
2C
100
AcDbDictionary
280
     1
281
     1
  3
ACAD_XREC_ROUNDTRIP
360
41D
  0
DICTIONARY
  5
41E
330
2D
100
AcDbDictionary
280
     1
281
     1
  3
ACAD_XREC_ROUNDTRIP
360
41F
  0
DICTIONARY
  5
420
330
2E
100
AcDbDictionary
280
     1
281
     1
  3
ACAD_XREC_ROUNDTRIP
360
421
  0
DICTIONARY
  5
426
330
31
100
AcDbDictionary
280
     1
281
     1
  3
ACAD_XREC_ROUNDTRIP
360
427
  0
DICTIONARY
  5
43A
330
3B
100
AcDbDictionary
280
     1
281
     1
  3
ACAD_XREC_ROUNDTRIP
360
43B
  0
DICTIONARY
  5
434
330
38
100
AcDbDictionary
280
     1
281
     1
  3
ACAD_XREC_ROUNDTRIP
360
435
  0
DICTIONARY
  5
43C
330
3C
100
AcDbDictionary
280
     1
281
     1
  3
ACAD_XREC_ROUNDTRIP
360
43D
  0
DICTIONARY
  5
42A
330
33
100
AcDbDictionary
280
     1
281
     1
  3
ACAD_XREC_ROUNDTRIP
360
42B
  0
DICTIONARY
  5
448
330
42
100
AcDbDictionary
280
     1
281
     1
  3
ACAD_XREC_ROUNDTRIP
360
449
  0
DICTIONARY
  5
446
330
41
100
AcDbDictionary
280
     1
281
     1
  3
ACAD_XREC_ROUNDTRIP
360
447
  0
DICTIONARY
  5
440
330
3E
100
AcDbDictionary
280
     1
281
     1
  3
ACAD_XREC_ROUNDTRIP
360
441
  0
DICTIONARY
  5
442
330
3F
100
AcDbDictionary
280
     1
281
     1
  3
ACAD_XREC_ROUNDTRIP
360
443
  0
DICTIONARY
  5
432
330
37
100
AcDbDictionary
280
     1
281
     1
  3
ACAD_XREC_ROUNDTRIP
360
433
  0
DICTIONARY
  5
424
330
30
100
AcDbDictionary
280
     1
281
     1
  3
ACAD_XREC_ROUNDTRIP
360
425
  0
DICTIONARY
  5
444
330
40
100
AcDbDictionary
280
     1
281
     1
  3
ACAD_XREC_ROUNDTRIP
360
445
  0
XRECORD
  5
412
102
{ACAD_REACTORS
330
418
102
}
330
418
100
AcDbXrecord
280
     1
  1
AcDb_Thumbnail_Schema
102
{ATTRRECORD
341
413
  2
AcDbDs::TreatedAsObjectData
280
     1
291
     1
102
ATTRRECORD}
102
{ATTRRECORD
341
414
  2
AcDbDs::Legacy
280
     1
291
     1
102
ATTRRECORD}
  2
AcDbDs::ID
280
    10
 91
        8
102
{ATTRRECORD
341
415
  2
AcDs:Indexable
280
     1
291
     1
102
ATTRRECORD}
102
{ATTRRECORD
341
416
  2
AcDbDs::HandleAttribute
280
     7
282
     1
102
ATTRRECORD}
  2
Thumbnail_Data
280
    15
 91
        0
  0
XRECORD
  5
413
102
{ACAD_REACTORS
330
418
102
}
330
418
100
AcDbXrecord
280
     1
  1
AcDbDs::TreatedAsObjectDataSchema
  2
AcDbDs::TreatedAsObjectData
280
     1
 91
        0
  0
XRECORD
  5
414
102
{ACAD_REACTORS
330
418
102
}
330
418
100
AcDbXrecord
280
     1
  1
AcDbDs::LegacySchema
  2
AcDbDs::Legacy
280
     1
 91
        0
  0
XRECORD
  5
415
102
{ACAD_REACTORS
330
418
102
}
330
418
100
AcDbXrecord
280
     1
  1
AcDbDs::IndexedPropertySchema
  2
AcDs:Indexable
280
     1
 91
        0
  0
XRECORD
  5
416
102
{ACAD_REACTORS
330
418
102
}
330
418
100
AcDbXrecord
280
     1
  1
AcDbDs::HandleAttributeSchema
  2
AcDbDs::HandleAttribute
280
     7
 91
        1
284
     1
  0
XRECORD
  5
44D
102
{ACAD_REACTORS
330
44C
102
}
330
44C
100
AcDbXrecord
280
     1
102
DISPLAYNAME
  1
Imperial24
102
FLAGS
 90
        0
  0
XRECORD
  5
36F
102
{ACAD_REACTORS
330
36E
102
}
330
36E
100
AcDbXrecord
280
     1
102
MATERIAL
148
0.0
149
0.0
149
0.0
 93
        0
 94
      127
282
     0
 72
     1
 77
     1
171
     1
175
     1
179
     1
273
     0
  0
XRECORD
  5
36D
102
{ACAD_REACTORS
330
36C
102
}
330
36C
100
AcDbXrecord
280
     1
102
MATERIAL
148
0.0
149
0.0
149
0.0
 93
        0
 94
      127
282
     0
 72
     1
 77
     1
171
     1
175
     1
179
     1
273
     0
  0
XRECORD
  5
371
102
{ACAD_REACTORS
330
370
102
}
330
370
100
AcDbXrecord
280
     1
102
MATERIAL
148
0.0
149
0.0
149
0.0
 93
        0
 94
      127
282
     0
 72
     1
 77
     1
171
     1
175
     1
179
     1
273
     0
  0
XRECORD
  5
44B
102
{ACAD_REACTORS
330
44A
102
}
330
44A
100
AcDbXrecord
280
     1
102
DISPLAYNAME
  1
Imperial24
102
FLAGS
 90
        0
  0
CELLSTYLEMAP
  5
40E
102
{ACAD_REACTORS
330
2B2
102
}
330
2B2
100
AcDbCellStyleMap
 90
        3
300
CELLSTYLE
  1
TABLEFORMAT_BEGIN
 90
        5
170
     1
 91
        0
 92
    32768
 62
   257
 93
        1
300
CONTENTFORMAT
  1
CONTENTFORMAT_BEGIN
 90
        0
 91
        0
 92
        4
 93
        0
300

 40
0.0
140
1.0
 94
        5
 62
     0
340
11
144
0.25
309
CONTENTFORMAT_END
171
     1
301
MARGIN
  1
CELLMARGIN_BEGIN
 40
0.06
 40
0.06
 40
0.06
 40
0.06
 40
0.18
 40
0.18
309
CELLMARGIN_END
 94
        6
 95
        1
302
GRIDFORMAT
  1
GRIDFORMAT_BEGIN
 90
        0
 91
        1
 62
     0
 92
       -2
340
14
 93
        0
 40
0.045
309
GRIDFORMAT_END
 95
        2
302
GRIDFORMAT
  1
GRIDFORMAT_BEGIN
 90
        0
 91
        1
 62
     0
 92
       -2
340
14
 93
        0
 40
0.045
309
GRIDFORMAT_END
 95
        4
302
GRIDFORMAT
  1
GRIDFORMAT_BEGIN
 90
        0
 91
        1
 62
     0
 92
       -2
340
14
 93
        0
 40
0.045
309
GRIDFORMAT_END
 95
        8
302
GRIDFORMAT
  1
GRIDFORMAT_BEGIN
 90
        0
 91
        1
 62
     0
 92
       -2
340
14
 93
        0
 40
0.045
309
GRIDFORMAT_END
 95
       16
302
GRIDFORMAT
  1
GRIDFORMAT_BEGIN
 90
        0
 91
        1
 62
     0
 92
       -2
340
14
 93
        0
 40
0.045
309
GRIDFORMAT_END
 95
       32
302
GRIDFORMAT
  1
GRIDFORMAT_BEGIN
 90
        0
 91
        1
 62
     0
 92
       -2
340
14
 93
        0
 40
0.045
309
GRIDFORMAT_END
309
TABLEFORMAT_END
  1
CELLSTYLE_BEGIN
 90
        1
 91
        1
300
_TITLE
309
CELLSTYLE_END
300
CELLSTYLE
  1
TABLEFORMAT_BEGIN
 90
        5
170
     1
 91
        0
 92
        0
 62
   257
 93
        1
300
CONTENTFORMAT
  1
CONTENTFORMAT_BEGIN
 90
        0
 91
        0
 92
        4
 93
        0
300

 40
0.0
140
1.0
 94
        5
 62
     0
340
11
144
0.18
309
CONTENTFORMAT_END
171
     1
301
MARGIN
  1
CELLMARGIN_BEGIN
 40
0.06
 40
0.06
 40
0.06
 40
0.06
 40
0.18
 40
0.18
309
CELLMARGIN_END
 94
        6
 95
        1
302
GRIDFORMAT
  1
GRIDFORMAT_BEGIN
 90
        0
 91
        1
 62
     0
 92
       -2
340
14
 93
        0
 40
0.045
309
GRIDFORMAT_END
 95
        2
302
GRIDFORMAT
  1
GRIDFORMAT_BEGIN
 90
        0
 91
        1
 62
     0
 92
       -2
340
14
 93
        0
 40
0.045
309
GRIDFORMAT_END
 95
        4
302
GRIDFORMAT
  1
GRIDFORMAT_BEGIN
 90
        0
 91
        1
 62
     0
 92
       -2
340
14
 93
        0
 40
0.045
309
GRIDFORMAT_END
 95
        8
302
GRIDFORMAT
  1
GRIDFORMAT_BEGIN
 90
        0
 91
        1
 62
     0
 92
       -2
340
14
 93
        0
 40
0.045
309
GRIDFORMAT_END
 95
       16
302
GRIDFORMAT
  1
GRIDFORMAT_BEGIN
 90
        0
 91
        1
 62
     0
 92
       -2
340
14
 93
        0
 40
0.045
309
GRIDFORMAT_END
 95
       32
302
GRIDFORMAT
  1
GRIDFORMAT_BEGIN
 90
        0
 91
        1
 62
     0
 92
       -2
340
14
 93
        0
 40
0.045
309
GRIDFORMAT_END
309
TABLEFORMAT_END
  1
CELLSTYLE_BEGIN
 90
        2
 91
        1
300
_HEADER
309
CELLSTYLE_END
300
CELLSTYLE
  1
TABLEFORMAT_BEGIN
 90
        5
170
     1
 91
        0
 92
        0
 62
   257
 93
        1
300
CONTENTFORMAT
  1
CONTENTFORMAT_BEGIN
 90
        0
 91
        0
 92
        4
 93
        0
300

 40
0.0
140
1.0
 94
        2
 62
     0
340
11
144
0.18
309
CONTENTFORMAT_END
171
     1
301
MARGIN
  1
CELLMARGIN_BEGIN
 40
0.06
 40
0.06
 40
0.06
 40
0.06
 40
0.18
 40
0.18
309
CELLMARGIN_END
 94
        6
 95
        1
302
GRIDFORMAT
  1
GRIDFORMAT_BEGIN
 90
        0
 91
        1
 62
     0
 92
       -2
340
14
 93
        0
 40
0.045
309
GRIDFORMAT_END
 95
        2
302
GRIDFORMAT
  1
GRIDFORMAT_BEGIN
 90
        0
 91
        1
 62
     0
 92
       -2
340
14
 93
        0
 40
0.045
309
GRIDFORMAT_END
 95
        4
302
GRIDFORMAT
  1
GRIDFORMAT_BEGIN
 90
        0
 91
        1
 62
     0
 92
       -2
340
14
 93
        0
 40
0.045
309
GRIDFORMAT_END
 95
        8
302
GRIDFORMAT
  1
GRIDFORMAT_BEGIN
 90
        0
 91
        1
 62
     0
 92
       -2
340
14
 93
        0
 40
0.045
309
GRIDFORMAT_END
 95
       16
302
GRIDFORMAT
  1
GRIDFORMAT_BEGIN
 90
        0
 91
        1
 62
     0
 92
       -2
340
14
 93
        0
 40
0.045
309
GRIDFORMAT_END
 95
       32
302
GRIDFORMAT
  1
GRIDFORMAT_BEGIN
 90
        0
 91
        1
 62
     0
 92
       -2
340
14
 93
        0
 40
0.045
309
GRIDFORMAT_END
309
TABLEFORMAT_END
  1
CELLSTYLE_BEGIN
 90
        3
 91
        2
300
_DATA
309
CELLSTYLE_END
  0
XRECORD
  5
423
102
{ACAD_REACTORS
330
422
102
}
330
422
100
AcDbXrecord
280
     1
102
RTVSPost2010Prop28
280
     1
102
RTVSPost2010PropOp28
 70
     1
102
RTVSPost2010Prop29
280
     1
102
RTVSPost2010PropOp29
 70
     1
102
RTVSPost2010Prop30
280
     0
102
RTVSPost2010PropOp30
 70
     1
102
RTVSPost2010Prop31
280
     0
102
RTVSPost2010PropOp31
 70
     1
102
RTVSPost2010Prop32
280
     0
102
RTVSPost2010PropOp32
 70
     1
102
RTVSPost2010Prop33
280
     0
102
RTVSPost2010PropOp33
 70
     1
102
RTVSPost2010Prop34
280
     0
102
RTVSPost2010PropOp34
 70
     1
102
RTVSPost2010Prop35
280
     0
102
RTVSPost2010PropOp35
 70
     1
102
RTVSPost2010Prop36
280
     0
102
RTVSPost2010PropOp36
 70
     1
102
RTVSPost2010Prop37
 90
       50
102
RTVSPost2010PropOp37
 70
     1
102
RTVSPost2010Prop38
140
0.0
102
RTVSPost2010PropOp38
 70
     1
102
RTVSPost2010Prop39
140
1.0
102
RTVSPost2010PropOp39
 70
     1
102
RTVSPost2010Prop40
 90
        0
102
RTVSPost2010PropOp40
 70
     1
102
RTVSPost2010Prop41ColorIndex
 90
       18
102
RTVSPost2010Prop41ColorRGB
 90
        0
102
RTVSPost2010PropOp41
 70
     1
102
RTVSPost2010Prop42
 90
       50
102
RTVSPost2010PropOp42
 70
     1
102
RTVSPost2010Prop43
 90
        3
102
RTVSPost2010PropOp43
 70
     1
102
RTVSPost2010Prop44ColorIndex
 90
        5
102
RTVSPost2010Prop44ColorRGB
 90
      255
102
RTVSPost2010PropOp44
 70
     1
102
RTVSPost2010Prop45
280
     0
102
RTVSPost2010PropOp45
 70
     1
102
RTVSPost2010Prop46
 90
       50
102
RTVSPost2010PropOp46
 70
     1
102
RTVSPost2010Prop47
 90
       50
102
RTVSPost2010PropOp47
 70
     1
102
RTVSPost2010Prop48
 90
       50
102
RTVSPost2010PropOp48
 70
     1
102
RTVSPost2010Prop49
280
     0
102
RTVSPost2010PropOp49
 70
     1
102
RTVSPost2010Prop50
 90
       50
102
RTVSPost2010PropOp50
 70
     1
102
RTVSPost2010Prop51ColorIndex
 90
      256
102
RTVSPost2010Prop51ColorRGB
 90
-16777216
102
RTVSPost2010PropOp51
 70
     0
102
RTVSPost2010Prop52
140
1.0
102
RTVSPost2010PropOp52
 70
     0
102
RTVSPost2010Prop53
 90
        2
102
RTVSPost2010PropOp53
 70
     1
102
RTVSPost2010Prop54
  1
strokes_ogs.tif
102
RTVSPost2010PropOp54
 70
     1
102
RTVSPost2010Prop55
280
     0
102
RTVSPost2010PropOp55
 70
     1
102
RTVSPost2010Prop56
140
1.0
102
RTVSPost2010PropOp56
 70
     1
102
RTVSPost2010Prop57
140
1.0
102
RTVSPost2010PropOp57
 70
     1
  0
XRECORD
  5
429
102
{ACAD_REACTORS
330
428
102
}
330
428
100
AcDbXrecord
280
     1
102
RTVSPost2010Prop28
280
     0
102
RTVSPost2010PropOp28
 70
     1
102
RTVSPost2010Prop29
280
     1
102
RTVSPost2010PropOp29
 70
     1
102
RTVSPost2010Prop30
280
     1
102
RTVSPost2010PropOp30
 70
     1
102
RTVSPost2010Prop31
280
     0
102
RTVSPost2010PropOp31
 70
     1
102
RTVSPost2010Prop32
280
     0
102
RTVSPost2010PropOp32
 70
     1
102
RTVSPost2010Prop33
280
     0
102
RTVSPost2010PropOp33
 70
     1
102
RTVSPost2010Prop34
280
     0
102
RTVSPost2010PropOp34
 70
     1
102
RTVSPost2010Prop35
280
     0
102
RTVSPost2010PropOp35
 70
     1
102
RTVSPost2010Prop36
280
     0
102
RTVSPost2010PropOp36
 70
     1
102
RTVSPost2010Prop37
 90
       50
102
RTVSPost2010PropOp37
 70
     1
102
RTVSPost2010Prop38
140
0.0
102
RTVSPost2010PropOp38
 70
     1
102
RTVSPost2010Prop39
140
1.0
102
RTVSPost2010PropOp39
 70
     1
102
RTVSPost2010Prop40
 90
        0
102
RTVSPost2010PropOp40
 70
     1
102
RTVSPost2010Prop41ColorIndex
 90
       18
102
RTVSPost2010Prop41ColorRGB
 90
        0
102
RTVSPost2010PropOp41
 70
     1
102
RTVSPost2010Prop42
 90
       50
102
RTVSPost2010PropOp42
 70
     1
102
RTVSPost2010Prop43
 90
        3
102
RTVSPost2010PropOp43
 70
     1
102
RTVSPost2010Prop44ColorIndex
 90
        5
102
RTVSPost2010Prop44ColorRGB
 90
      255
102
RTVSPost2010PropOp44
 70
     1
102
RTVSPost2010Prop45
280
     0
102
RTVSPost2010PropOp45
 70
     1
102
RTVSPost2010Prop46
 90
       50
102
RTVSPost2010PropOp46
 70
     1
102
RTVSPost2010Prop47
 90
       50
102
RTVSPost2010PropOp47
 70
     1
102
RTVSPost2010Prop48
 90
       50
102
RTVSPost2010PropOp48
 70
     1
102
RTVSPost2010Prop49
280
     0
102
RTVSPost2010PropOp49
 70
     1
102
RTVSPost2010Prop50
 90
       50
102
RTVSPost2010PropOp50
 70
     1
102
RTVSPost2010Prop51ColorIndex
 90
      256
102
RTVSPost2010Prop51ColorRGB
 90
-16777216
102
RTVSPost2010PropOp51
 70
     0
102
RTVSPost2010Prop52
140
1.0
102
RTVSPost2010PropOp52
 70
     0
102
RTVSPost2010Prop53
 90
        2
102
RTVSPost2010PropOp53
 70
     1
102
RTVSPost2010Prop54
  1
strokes_ogs.tif
102
RTVSPost2010PropOp54
 70
     1
102
RTVSPost2010Prop55
280
     0
102
RTVSPost2010PropOp55
 70
     1
102
RTVSPost2010Prop56
140
1.0
102
RTVSPost2010PropOp56
 70
     1
102
RTVSPost2010Prop57
140
1.0
102
RTVSPost2010PropOp57
 70
     1
  0
XRECORD
  5
431
102
{ACAD_REACTORS
330
430
102
}
330
430
100
AcDbXrecord
280
     1
102
RTVSPost2010Prop28
280
     0
102
RTVSPost2010PropOp28
 70
     1
102
RTVSPost2010Prop29
280
     1
102
RTVSPost2010PropOp29
 70
     1
102
RTVSPost2010Prop30
280
     1
102
RTVSPost2010PropOp30
 70
     1
102
RTVSPost2010Prop31
280
     0
102
RTVSPost2010PropOp31
 70
     1
102
RTVSPost2010Prop32
280
     0
102
RTVSPost2010PropOp32
 70
     1
102
RTVSPost2010Prop33
280
     0
102
RTVSPost2010PropOp33
 70
     1
102
RTVSPost2010Prop34
280
     0
102
RTVSPost2010PropOp34
 70
     1
102
RTVSPost2010Prop35
280
     0
102
RTVSPost2010PropOp35
 70
     1
102
RTVSPost2010Prop36
280
     0
102
RTVSPost2010PropOp36
 70
     1
102
RTVSPost2010Prop37
 90
       50
102
RTVSPost2010PropOp37
 70
     1
102
RTVSPost2010Prop38
140
0.0
102
RTVSPost2010PropOp38
 70
     1
102
RTVSPost2010Prop39
140
1.0
102
RTVSPost2010PropOp39
 70
     1
102
RTVSPost2010Prop40
 90
        0
102
RTVSPost2010PropOp40
 70
     1
102
RTVSPost2010Prop41ColorIndex
 90
       18
102
RTVSPost2010Prop41ColorRGB
 90
        0
102
RTVSPost2010PropOp41
 70
     1
102
RTVSPost2010Prop42
 90
       50
102
RTVSPost2010PropOp42
 70
     1
102
RTVSPost2010Prop43
 90
        3
102
RTVSPost2010PropOp43
 70
     1
102
RTVSPost2010Prop44ColorIndex
 90
        5
102
RTVSPost2010Prop44ColorRGB
 90
      255
102
RTVSPost2010PropOp44
 70
     1
102
RTVSPost2010Prop45
280
     0
102
RTVSPost2010PropOp45
 70
     1
102
RTVSPost2010Prop46
 90
       50
102
RTVSPost2010PropOp46
 70
     1
102
RTVSPost2010Prop47
 90
       50
102
RTVSPost2010PropOp47
 70
     1
102
RTVSPost2010Prop48
 90
       50
102
RTVSPost2010PropOp48
 70
     1
102
RTVSPost2010Prop49
280
     0
102
RTVSPost2010PropOp49
 70
     1
102
RTVSPost2010Prop50
 90
       50
102
RTVSPost2010PropOp50
 70
     1
102
RTVSPost2010Prop51ColorIndex
 90
      256
102
RTVSPost2010Prop51ColorRGB
 90
-16777216
102
RTVSPost2010PropOp51
 70
     0
102
RTVSPost2010Prop52
140
1.0
102
RTVSPost2010PropOp52
 70
     0
102
RTVSPost2010Prop53
 90
        2
102
RTVSPost2010PropOp53
 70
     1
102
RTVSPost2010Prop54
  1
strokes_ogs.tif
102
RTVSPost2010PropOp54
 70
     1
102
RTVSPost2010Prop55
280
     0
102
RTVSPost2010PropOp55
 70
     1
102
RTVSPost2010Prop56
140
1.0
102
RTVSPost2010PropOp56
 70
     1
102
RTVSPost2010Prop57
140
1.0
102
RTVSPost2010PropOp57
 70
     1
  0
XRECORD
  5
439
102
{ACAD_REACTORS
330
438
102
}
330
438
100
AcDbXrecord
280
     1
102
RTVSPost2010Prop28
280
     0
102
RTVSPost2010PropOp28
 70
     1
102
RTVSPost2010Prop29
280
     1
102
RTVSPost2010PropOp29
 70
     1
102
RTVSPost2010Prop30
280
     1
102
RTVSPost2010PropOp30
 70
     1
102
RTVSPost2010Prop31
280
     0
102
RTVSPost2010PropOp31
 70
     1
102
RTVSPost2010Prop32
280
     0
102
RTVSPost2010PropOp32
 70
     1
102
RTVSPost2010Prop33
280
     0
102
RTVSPost2010PropOp33
 70
     1
102
RTVSPost2010Prop34
280
     0
102
RTVSPost2010PropOp34
 70
     1
102
RTVSPost2010Prop35
280
     0
102
RTVSPost2010PropOp35
 70
     1
102
RTVSPost2010Prop36
280
     0
102
RTVSPost2010PropOp36
 70
     1
102
RTVSPost2010Prop37
 90
       50
102
RTVSPost2010PropOp37
 70
     1
102
RTVSPost2010Prop38
140
0.0
102
RTVSPost2010PropOp38
 70
     1
102
RTVSPost2010Prop39
140
1.0
102
RTVSPost2010PropOp39
 70
     1
102
RTVSPost2010Prop40
 90
        0
102
RTVSPost2010PropOp40
 70
     1
102
RTVSPost2010Prop41ColorIndex
 90
       18
102
RTVSPost2010Prop41ColorRGB
 90
        0
102
RTVSPost2010PropOp41
 70
     1
102
RTVSPost2010Prop42
 90
       50
102
RTVSPost2010PropOp42
 70
     1
102
RTVSPost2010Prop43
 90
        3
102
RTVSPost2010PropOp43
 70
     1
102
RTVSPost2010Prop44ColorIndex
 90
        5
102
RTVSPost2010Prop44ColorRGB
 90
      255
102
RTVSPost2010PropOp44
 70
     1
102
RTVSPost2010Prop45
280
     0
102
RTVSPost2010PropOp45
 70
     1
102
RTVSPost2010Prop46
 90
       50
102
RTVSPost2010PropOp46
 70
     1
102
RTVSPost2010Prop47
 90
       50
102
RTVSPost2010PropOp47
 70
     1
102
RTVSPost2010Prop48
 90
       50
102
RTVSPost2010PropOp48
 70
     1
102
RTVSPost2010Prop49
280
     0
102
RTVSPost2010PropOp49
 70
     1
102
RTVSPost2010Prop50
 90
       50
102
RTVSPost2010PropOp50
 70
     1
102
RTVSPost2010Prop51ColorIndex
 90
      256
102
RTVSPost2010Prop51ColorRGB
 90
-16777216
102
RTVSPost2010PropOp51
 70
     0
102
RTVSPost2010Prop52
140
1.0
102
RTVSPost2010PropOp52
 70
     0
102
RTVSPost2010Prop53
 90
        2
102
RTVSPost2010PropOp53
 70
     1
102
RTVSPost2010Prop54
  1
strokes_ogs.tif
102
RTVSPost2010PropOp54
 70
     1
102
RTVSPost2010Prop55
280
     0
102
RTVSPost2010PropOp55
 70
     1
102
RTVSPost2010Prop56
140
1.0
102
RTVSPost2010PropOp56
 70
     1
102
RTVSPost2010Prop57
140
1.0
102
RTVSPost2010PropOp57
 70
     1
  0
XRECORD
  5
42D
102
{ACAD_REACTORS
330
42C
102
}
330
42C
100
AcDbXrecord
280
     1
102
RTVSPost2010Prop28
280
     0
102
RTVSPost2010PropOp28
 70
     1
102
RTVSPost2010Prop29
280
     1
102
RTVSPost2010PropOp29
 70
     1
102
RTVSPost2010Prop30
280
     1
102
RTVSPost2010PropOp30
 70
     1
102
RTVSPost2010Prop31
280
     0
102
RTVSPost2010PropOp31
 70
     1
102
RTVSPost2010Prop32
280
     0
102
RTVSPost2010PropOp32
 70
     1
102
RTVSPost2010Prop33
280
     0
102
RTVSPost2010PropOp33
 70
     1
102
RTVSPost2010Prop34
280
     0
102
RTVSPost2010PropOp34
 70
     1
102
RTVSPost2010Prop35
280
     0
102
RTVSPost2010PropOp35
 70
     1
102
RTVSPost2010Prop36
280
     0
102
RTVSPost2010PropOp36
 70
     1
102
RTVSPost2010Prop37
 90
       50
102
RTVSPost2010PropOp37
 70
     1
102
RTVSPost2010Prop38
140
0.0
102
RTVSPost2010PropOp38
 70
     1
102
RTVSPost2010Prop39
140
1.0
102
RTVSPost2010PropOp39
 70
     1
102
RTVSPost2010Prop40
 90
        0
102
RTVSPost2010PropOp40
 70
     1
102
RTVSPost2010Prop41ColorIndex
 90
       18
102
RTVSPost2010Prop41ColorRGB
 90
        0
102
RTVSPost2010PropOp41
 70
     1
102
RTVSPost2010Prop42
 90
       50
102
RTVSPost2010PropOp42
 70
     1
102
RTVSPost2010Prop43
 90
        3
102
RTVSPost2010PropOp43
 70
     1
102
RTVSPost2010Prop44ColorIndex
 90
        5
102
RTVSPost2010Prop44ColorRGB
 90
      255
102
RTVSPost2010PropOp44
 70
     1
102
RTVSPost2010Prop45
280
     0
102
RTVSPost2010PropOp45
 70
     1
102
RTVSPost2010Prop46
 90
       50
102
RTVSPost2010PropOp46
 70
     1
102
RTVSPost2010Prop47
 90
       50
102
RTVSPost2010PropOp47
 70
     1
102
RTVSPost2010Prop48
 90
       50
102
RTVSPost2010PropOp48
 70
     1
102
RTVSPost2010Prop49
280
     0
102
RTVSPost2010PropOp49
 70
     1
102
RTVSPost2010Prop50
 90
       50
102
RTVSPost2010PropOp50
 70
     1
102
RTVSPost2010Prop51ColorIndex
 90
      256
102
RTVSPost2010Prop51ColorRGB
 90
-16777216
102
RTVSPost2010PropOp51
 70
     0
102
RTVSPost2010Prop52
140
1.0
102
RTVSPost2010PropOp52
 70
     0
102
RTVSPost2010Prop53
 90
        2
102
RTVSPost2010PropOp53
 70
     1
102
RTVSPost2010Prop54
  1
strokes_ogs.tif
102
RTVSPost2010PropOp54
 70
     1
102
RTVSPost2010Prop55
280
     0
102
RTVSPost2010PropOp55
 70
     1
102
RTVSPost2010Prop56
140
1.0
102
RTVSPost2010PropOp56
 70
     1
102
RTVSPost2010Prop57
140
1.0
102
RTVSPost2010PropOp57
 70
     1
  0
XRECORD
  5
42F
102
{ACAD_REACTORS
330
42E
102
}
330
42E
100
AcDbXrecord
280
     1
102
RTVSPost2010Prop28
280
     0
102
RTVSPost2010PropOp28
 70
     1
102
RTVSPost2010Prop29
280
     1
102
RTVSPost2010PropOp29
 70
     1
102
RTVSPost2010Prop30
280
     1
102
RTVSPost2010PropOp30
 70
     1
102
RTVSPost2010Prop31
280
     0
102
RTVSPost2010PropOp31
 70
     1
102
RTVSPost2010Prop32
280
     0
102
RTVSPost2010PropOp32
 70
     1
102
RTVSPost2010Prop33
280
     0
102
RTVSPost2010PropOp33
 70
     1
102
RTVSPost2010Prop34
280
     0
102
RTVSPost2010PropOp34
 70
     1
102
RTVSPost2010Prop35
280
     0
102
RTVSPost2010PropOp35
 70
     1
102
RTVSPost2010Prop36
280
     0
102
RTVSPost2010PropOp36
 70
     1
102
RTVSPost2010Prop37
 90
       50
102
RTVSPost2010PropOp37
 70
     1
102
RTVSPost2010Prop38
140
0.0
102
RTVSPost2010PropOp38
 70
     1
102
RTVSPost2010Prop39
140
1.0
102
RTVSPost2010PropOp39
 70
     1
102
RTVSPost2010Prop40
 90
        0
102
RTVSPost2010PropOp40
 70
     1
102
RTVSPost2010Prop41ColorIndex
 90
       18
102
RTVSPost2010Prop41ColorRGB
 90
        0
102
RTVSPost2010PropOp41
 70
     1
102
RTVSPost2010Prop42
 90
       50
102
RTVSPost2010PropOp42
 70
     1
102
RTVSPost2010Prop43
 90
        3
102
RTVSPost2010PropOp43
 70
     1
102
RTVSPost2010Prop44ColorIndex
 90
        5
102
RTVSPost2010Prop44ColorRGB
 90
      255
102
RTVSPost2010PropOp44
 70
     1
102
RTVSPost2010Prop45
280
     0
102
RTVSPost2010PropOp45
 70
     1
102
RTVSPost2010Prop46
 90
       50
102
RTVSPost2010PropOp46
 70
     1
102
RTVSPost2010Prop47
 90
       50
102
RTVSPost2010PropOp47
 70
     1
102
RTVSPost2010Prop48
 90
       50
102
RTVSPost2010PropOp48
 70
     1
102
RTVSPost2010Prop49
280
     0
102
RTVSPost2010PropOp49
 70
     1
102
RTVSPost2010Prop50
 90
       50
102
RTVSPost2010PropOp50
 70
     1
102
RTVSPost2010Prop51ColorIndex
 90
      256
102
RTVSPost2010Prop51ColorRGB
 90
-16777216
102
RTVSPost2010PropOp51
 70
     0
102
RTVSPost2010Prop52
140
1.0
102
RTVSPost2010PropOp52
 70
     0
102
RTVSPost2010Prop53
 90
        2
102
RTVSPost2010PropOp53
 70
     1
102
RTVSPost2010Prop54
  1
strokes_ogs.tif
102
RTVSPost2010PropOp54
 70
     1
102
RTVSPost2010Prop55
280
     0
102
RTVSPost2010PropOp55
 70
     1
102
RTVSPost2010Prop56
140
1.0
102
RTVSPost2010PropOp56
 70
     1
102
RTVSPost2010Prop57
140
1.0
102
RTVSPost2010PropOp57
 70
     1
  0
XRECORD
  5
43F
102
{ACAD_REACTORS
330
43E
102
}
330
43E
100
AcDbXrecord
280
     1
102
RTVSPost2010Prop28
280
     0
102
RTVSPost2010PropOp28
 70
     0
102
RTVSPost2010Prop29
280
     1
102
RTVSPost2010PropOp29
 70
     0
102
RTVSPost2010Prop30
280
     1
102
RTVSPost2010PropOp30
 70
     0
102
RTVSPost2010Prop31
280
     0
102
RTVSPost2010PropOp31
 70
     0
102
RTVSPost2010Prop32
280
     0
102
RTVSPost2010PropOp32
 70
     0
102
RTVSPost2010Prop33
280
     0
102
RTVSPost2010PropOp33
 70
     0
102
RTVSPost2010Prop34
280
     0
102
RTVSPost2010PropOp34
 70
     0
102
RTVSPost2010Prop35
280
     0
102
RTVSPost2010PropOp35
 70
     0
102
RTVSPost2010Prop36
280
     0
102
RTVSPost2010PropOp36
 70
     0
102
RTVSPost2010Prop37
 90
       50
102
RTVSPost2010PropOp37
 70
     0
102
RTVSPost2010Prop38
140
0.0
102
RTVSPost2010PropOp38
 70
     0
102
RTVSPost2010Prop39
140
1.0
102
RTVSPost2010PropOp39
 70
     0
102
RTVSPost2010Prop40
 90
        0
102
RTVSPost2010PropOp40
 70
     0
102
RTVSPost2010Prop41ColorIndex
 90
       18
102
RTVSPost2010Prop41ColorRGB
 90
        0
102
RTVSPost2010PropOp41
 70
     0
102
RTVSPost2010Prop42
 90
       50
102
RTVSPost2010PropOp42
 70
     0
102
RTVSPost2010Prop43
 90
        3
102
RTVSPost2010PropOp43
 70
     0
102
RTVSPost2010Prop44ColorIndex
 90
        5
102
RTVSPost2010Prop44ColorRGB
 90
      255
102
RTVSPost2010PropOp44
 70
     0
102
RTVSPost2010Prop45
280
     0
102
RTVSPost2010PropOp45
 70
     0
102
RTVSPost2010Prop46
 90
       50
102
RTVSPost2010PropOp46
 70
     0
102
RTVSPost2010Prop47
 90
       50
102
RTVSPost2010PropOp47
 70
     0
102
RTVSPost2010Prop48
 90
       50
102
RTVSPost2010PropOp48
 70
     0
102
RTVSPost2010Prop49
280
     0
102
RTVSPost2010PropOp49
 70
     0
102
RTVSPost2010Prop50
 90
       50
102
RTVSPost2010PropOp50
 70
     0
102
RTVSPost2010Prop51ColorIndex
 90
      256
102
RTVSPost2010Prop51ColorRGB
 90
-16777216
102
RTVSPost2010PropOp51
 70
     0
102
RTVSPost2010Prop52
140
1.0
102
RTVSPost2010PropOp52
 70
     0
102
RTVSPost2010Prop53
 90
        2
102
RTVSPost2010PropOp53
 70
     0
102
RTVSPost2010Prop54
  1
strokes_ogs.tif
102
RTVSPost2010PropOp54
 70
     0
102
RTVSPost2010Prop55
280
     0
102
RTVSPost2010PropOp55
 70
     0
102
RTVSPost2010Prop56
140
1.0
102
RTVSPost2010PropOp56
 70
     0
102
RTVSPost2010Prop57
140
1.0
102
RTVSPost2010PropOp57
 70
     0
  0
XRECORD
  5
437
102
{ACAD_REACTORS
330
436
102
}
330
436
100
AcDbXrecord
280
     1
102
RTVSPost2010Prop28
280
     0
102
RTVSPost2010PropOp28
 70
     1
102
RTVSPost2010Prop29
280
     1
102
RTVSPost2010PropOp29
 70
     1
102
RTVSPost2010Prop30
280
     1
102
RTVSPost2010PropOp30
 70
     1
102
RTVSPost2010Prop31
280
     0
102
RTVSPost2010PropOp31
 70
     1
102
RTVSPost2010Prop32
280
     0
102
RTVSPost2010PropOp32
 70
     1
102
RTVSPost2010Prop33
280
     0
102
RTVSPost2010PropOp33
 70
     1
102
RTVSPost2010Prop34
280
     0
102
RTVSPost2010PropOp34
 70
     1
102
RTVSPost2010Prop35
280
     0
102
RTVSPost2010PropOp35
 70
     1
102
RTVSPost2010Prop36
280
     0
102
RTVSPost2010PropOp36
 70
     1
102
RTVSPost2010Prop37
 90
       50
102
RTVSPost2010PropOp37
 70
     1
102
RTVSPost2010Prop38
140
0.0
102
RTVSPost2010PropOp38
 70
     1
102
RTVSPost2010Prop39
140
1.0
102
RTVSPost2010PropOp39
 70
     1
102
RTVSPost2010Prop40
 90
        0
102
RTVSPost2010PropOp40
 70
     1
102
RTVSPost2010Prop41ColorIndex
 90
       18
102
RTVSPost2010Prop41ColorRGB
 90
        0
102
RTVSPost2010PropOp41
 70
     1
102
RTVSPost2010Prop42
 90
       50
102
RTVSPost2010PropOp42
 70
     1
102
RTVSPost2010Prop43
 90
        3
102
RTVSPost2010PropOp43
 70
     1
102
RTVSPost2010Prop44ColorIndex
 90
        5
102
RTVSPost2010Prop44ColorRGB
 90
      255
102
RTVSPost2010PropOp44
 70
     1
102
RTVSPost2010Prop45
280
     0
102
RTVSPost2010PropOp45
 70
     1
102
RTVSPost2010Prop46
 90
       50
102
RTVSPost2010PropOp46
 70
     1
102
RTVSPost2010Prop47
 90
       50
102
RTVSPost2010PropOp47
 70
     1
102
RTVSPost2010Prop48
 90
       50
102
RTVSPost2010PropOp48
 70
     1
102
RTVSPost2010Prop49
280
     0
102
RTVSPost2010PropOp49
 70
     1
102
RTVSPost2010Prop50
 90
       50
102
RTVSPost2010PropOp50
 70
     1
102
RTVSPost2010Prop51ColorIndex
 90
      256
102
RTVSPost2010Prop51ColorRGB
 90
-16777216
102
RTVSPost2010PropOp51
 70
     0
102
RTVSPost2010Prop52
140
1.0
102
RTVSPost2010PropOp52
 70
     0
102
RTVSPost2010Prop53
 90
        2
102
RTVSPost2010PropOp53
 70
     1
102
RTVSPost2010Prop54
  1
strokes_ogs.tif
102
RTVSPost2010PropOp54
 70
     1
102
RTVSPost2010Prop55
280
     0
102
RTVSPost2010PropOp55
 70
     1
102
RTVSPost2010Prop56
140
1.0
102
RTVSPost2010PropOp56
 70
     1
102
RTVSPost2010Prop57
140
1.0
102
RTVSPost2010PropOp57
 70
     1
  0
XRECORD
  5
41B
102
{ACAD_REACTORS
330
41A
102
}
330
41A
100
AcDbXrecord
280
     1
102
RTVSPost2010Prop28
280
     0
102
RTVSPost2010PropOp28
 70
     1
102
RTVSPost2010Prop29
280
     1
102
RTVSPost2010PropOp29
 70
     1
102
RTVSPost2010Prop30
280
     1
102
RTVSPost2010PropOp30
 70
     1
102
RTVSPost2010Prop31
280
     0
102
RTVSPost2010PropOp31
 70
     1
102
RTVSPost2010Prop32
280
     0
102
RTVSPost2010PropOp32
 70
     1
102
RTVSPost2010Prop33
280
     0
102
RTVSPost2010PropOp33
 70
     1
102
RTVSPost2010Prop34
280
     0
102
RTVSPost2010PropOp34
 70
     1
102
RTVSPost2010Prop35
280
     0
102
RTVSPost2010PropOp35
 70
     1
102
RTVSPost2010Prop36
280
     0
102
RTVSPost2010PropOp36
 70
     1
102
RTVSPost2010Prop37
 90
       50
102
RTVSPost2010PropOp37
 70
     1
102
RTVSPost2010Prop38
140
0.0
102
RTVSPost2010PropOp38
 70
     1
102
RTVSPost2010Prop39
140
1.0
102
RTVSPost2010PropOp39
 70
     1
102
RTVSPost2010Prop40
 90
        0
102
RTVSPost2010PropOp40
 70
     1
102
RTVSPost2010Prop41ColorIndex
 90
       18
102
RTVSPost2010Prop41ColorRGB
 90
        0
102
RTVSPost2010PropOp41
 70
     1
102
RTVSPost2010Prop42
 90
       50
102
RTVSPost2010PropOp42
 70
     1
102
RTVSPost2010Prop43
 90
        3
102
RTVSPost2010PropOp43
 70
     1
102
RTVSPost2010Prop44ColorIndex
 90
        5
102
RTVSPost2010Prop44ColorRGB
 90
      255
102
RTVSPost2010PropOp44
 70
     1
102
RTVSPost2010Prop45
280
     0
102
RTVSPost2010PropOp45
 70
     1
102
RTVSPost2010Prop46
 90
       50
102
RTVSPost2010PropOp46
 70
     1
102
RTVSPost2010Prop47
 90
       50
102
RTVSPost2010PropOp47
 70
     1
102
RTVSPost2010Prop48
 90
       50
102
RTVSPost2010PropOp48
 70
     1
102
RTVSPost2010Prop49
280
     0
102
RTVSPost2010PropOp49
 70
     1
102
RTVSPost2010Prop50
 90
       50
102
RTVSPost2010PropOp50
 70
     1
102
RTVSPost2010Prop51ColorIndex
 90
      256
102
RTVSPost2010Prop51ColorRGB
 90
-16777216
102
RTVSPost2010PropOp51
 70
     0
102
RTVSPost2010Prop52
140
1.0
102
RTVSPost2010PropOp52
 70
     0
102
RTVSPost2010Prop53
 90
        2
102
RTVSPost2010PropOp53
 70
     1
102
RTVSPost2010Prop54
  1
strokes_ogs.tif
102
RTVSPost2010PropOp54
 70
     1
102
RTVSPost2010Prop55
280
     0
102
RTVSPost2010PropOp55
 70
     1
102
RTVSPost2010Prop56
140
1.0
102
RTVSPost2010PropOp56
 70
     1
102
RTVSPost2010Prop57
140
1.0
102
RTVSPost2010PropOp57
 70
     1
  0
XRECORD
  5
41D
102
{ACAD_REACTORS
330
41C
102
}
330
41C
100
AcDbXrecord
280
     1
102
RTVSPost2010Prop28
280
     0
102
RTVSPost2010PropOp28
 70
     1
102
RTVSPost2010Prop29
280
     1
102
RTVSPost2010PropOp29
 70
     1
102
RTVSPost2010Prop30
280
     1
102
RTVSPost2010PropOp30
 70
     1
102
RTVSPost2010Prop31
280
     0
102
RTVSPost2010PropOp31
 70
     1
102
RTVSPost2010Prop32
280
     0
102
RTVSPost2010PropOp32
 70
     1
102
RTVSPost2010Prop33
280
     0
102
RTVSPost2010PropOp33
 70
     1
102
RTVSPost2010Prop34
280
     0
102
RTVSPost2010PropOp34
 70
     1
102
RTVSPost2010Prop35
280
     0
102
RTVSPost2010PropOp35
 70
     1
102
RTVSPost2010Prop36
280
     0
102
RTVSPost2010PropOp36
 70
     1
102
RTVSPost2010Prop37
 90
       50
102
RTVSPost2010PropOp37
 70
     1
102
RTVSPost2010Prop38
140
0.0
102
RTVSPost2010PropOp38
 70
     1
102
RTVSPost2010Prop39
140
1.0
102
RTVSPost2010PropOp39
 70
     1
102
RTVSPost2010Prop40
 90
        0
102
RTVSPost2010PropOp40
 70
     1
102
RTVSPost2010Prop41ColorIndex
 90
       18
102
RTVSPost2010Prop41ColorRGB
 90
        0
102
RTVSPost2010PropOp41
 70
     1
102
RTVSPost2010Prop42
 90
       50
102
RTVSPost2010PropOp42
 70
     1
102
RTVSPost2010Prop43
 90
        3
102
RTVSPost2010PropOp43
 70
     1
102
RTVSPost2010Prop44ColorIndex
 90
        5
102
RTVSPost2010Prop44ColorRGB
 90
      255
102
RTVSPost2010PropOp44
 70
     1
102
RTVSPost2010Prop45
280
     0
102
RTVSPost2010PropOp45
 70
     1
102
RTVSPost2010Prop46
 90
       50
102
RTVSPost2010PropOp46
 70
     1
102
RTVSPost2010Prop47
 90
       50
102
RTVSPost2010PropOp47
 70
     1
102
RTVSPost2010Prop48
 90
       50
102
RTVSPost2010PropOp48
 70
     1
102
RTVSPost2010Prop49
280
     0
102
RTVSPost2010PropOp49
 70
     1
102
RTVSPost2010Prop50
 90
       50
102
RTVSPost2010PropOp50
 70
     1
102
RTVSPost2010Prop51ColorIndex
 90
      256
102
RTVSPost2010Prop51ColorRGB
 90
-16777216
102
RTVSPost2010PropOp51
 70
     0
102
RTVSPost2010Prop52
140
1.0
102
RTVSPost2010PropOp52
 70
     0
102
RTVSPost2010Prop53
 90
        2
102
RTVSPost2010PropOp53
 70
     1
102
RTVSPost2010Prop54
  1
strokes_ogs.tif
102
RTVSPost2010PropOp54
 70
     1
102
RTVSPost2010Prop55
280
     0
102
RTVSPost2010PropOp55
 70
     1
102
RTVSPost2010Prop56
140
1.0
102
RTVSPost2010PropOp56
 70
     1
102
RTVSPost2010Prop57
140
1.0
102
RTVSPost2010PropOp57
 70
     1
  0
XRECORD
  5
41F
102
{ACAD_REACTORS
330
41E
102
}
330
41E
100
AcDbXrecord
280
     1
102
RTVSPost2010Prop28
280
     0
102
RTVSPost2010PropOp28
 70
     1
102
RTVSPost2010Prop29
280
     1
102
RTVSPost2010PropOp29
 70
     1
102
RTVSPost2010Prop30
280
     1
102
RTVSPost2010PropOp30
 70
     1
102
RTVSPost2010Prop31
280
     0
102
RTVSPost2010PropOp31
 70
     1
102
RTVSPost2010Prop32
280
     0
102
RTVSPost2010PropOp32
 70
     1
102
RTVSPost2010Prop33
280
     0
102
RTVSPost2010PropOp33
 70
     1
102
RTVSPost2010Prop34
280
     0
102
RTVSPost2010PropOp34
 70
     1
102
RTVSPost2010Prop35
280
     0
102
RTVSPost2010PropOp35
 70
     1
102
RTVSPost2010Prop36
280
     0
102
RTVSPost2010PropOp36
 70
     1
102
RTVSPost2010Prop37
 90
       50
102
RTVSPost2010PropOp37
 70
     1
102
RTVSPost2010Prop38
140
0.0
102
RTVSPost2010PropOp38
 70
     1
102
RTVSPost2010Prop39
140
1.0
102
RTVSPost2010PropOp39
 70
     1
102
RTVSPost2010Prop40
 90
        0
102
RTVSPost2010PropOp40
 70
     1
102
RTVSPost2010Prop41ColorIndex
 90
       18
102
RTVSPost2010Prop41ColorRGB
 90
        0
102
RTVSPost2010PropOp41
 70
     1
102
RTVSPost2010Prop42
 90
       50
102
RTVSPost2010PropOp42
 70
     1
102
RTVSPost2010Prop43
 90
        3
102
RTVSPost2010PropOp43
 70
     1
102
RTVSPost2010Prop44ColorIndex
 90
        5
102
RTVSPost2010Prop44ColorRGB
 90
      255
102
RTVSPost2010PropOp44
 70
     1
102
RTVSPost2010Prop45
280
     0
102
RTVSPost2010PropOp45
 70
     1
102
RTVSPost2010Prop46
 90
       50
102
RTVSPost2010PropOp46
 70
     1
102
RTVSPost2010Prop47
 90
       50
102
RTVSPost2010PropOp47
 70
     1
102
RTVSPost2010Prop48
 90
       50
102
RTVSPost2010PropOp48
 70
     1
102
RTVSPost2010Prop49
280
     0
102
RTVSPost2010PropOp49
 70
     1
102
RTVSPost2010Prop50
 90
       50
102
RTVSPost2010PropOp50
 70
     1
102
RTVSPost2010Prop51ColorIndex
 90
      256
102
RTVSPost2010Prop51ColorRGB
 90
-16777216
102
RTVSPost2010PropOp51
 70
     0
102
RTVSPost2010Prop52
140
1.0
102
RTVSPost2010PropOp52
 70
     0
102
RTVSPost2010Prop53
 90
        2
102
RTVSPost2010PropOp53
 70
     1
102
RTVSPost2010Prop54
  1
strokes_ogs.tif
102
RTVSPost2010PropOp54
 70
     1
102
RTVSPost2010Prop55
280
     0
102
RTVSPost2010PropOp55
 70
     1
102
RTVSPost2010Prop56
140
1.0
102
RTVSPost2010PropOp56
 70
     1
102
RTVSPost2010Prop57
140
1.0
102
RTVSPost2010PropOp57
 70
     1
  0
XRECORD
  5
421
102
{ACAD_REACTORS
330
420
102
}
330
420
100
AcDbXrecord
280
     1
102
RTVSPost2010Prop28
280
     0
102
RTVSPost2010PropOp28
 70
     1
102
RTVSPost2010Prop29
280
     1
102
RTVSPost2010PropOp29
 70
     1
102
RTVSPost2010Prop30
280
     1
102
RTVSPost2010PropOp30
 70
     1
102
RTVSPost2010Prop31
280
     0
102
RTVSPost2010PropOp31
 70
     1
102
RTVSPost2010Prop32
280
     0
102
RTVSPost2010PropOp32
 70
     1
102
RTVSPost2010Prop33
280
     0
102
RTVSPost2010PropOp33
 70
     1
102
RTVSPost2010Prop34
280
     0
102
RTVSPost2010PropOp34
 70
     1
102
RTVSPost2010Prop35
280
     0
102
RTVSPost2010PropOp35
 70
     1
102
RTVSPost2010Prop36
280
     0
102
RTVSPost2010PropOp36
 70
     1
102
RTVSPost2010Prop37
 90
       50
102
RTVSPost2010PropOp37
 70
     1
102
RTVSPost2010Prop38
140
0.0
102
RTVSPost2010PropOp38
 70
     1
102
RTVSPost2010Prop39
140
1.0
102
RTVSPost2010PropOp39
 70
     1
102
RTVSPost2010Prop40
 90
        0
102
RTVSPost2010PropOp40
 70
     1
102
RTVSPost2010Prop41ColorIndex
 90
       18
102
RTVSPost2010Prop41ColorRGB
 90
        0
102
RTVSPost2010PropOp41
 70
     1
102
RTVSPost2010Prop42
 90
       50
102
RTVSPost2010PropOp42
 70
     1
102
RTVSPost2010Prop43
 90
        3
102
RTVSPost2010PropOp43
 70
     1
102
RTVSPost2010Prop44ColorIndex
 90
        5
102
RTVSPost2010Prop44ColorRGB
 90
      255
102
RTVSPost2010PropOp44
 70
     1
102
RTVSPost2010Prop45
280
     0
102
RTVSPost2010PropOp45
 70
     1
102
RTVSPost2010Prop46
 90
       50
102
RTVSPost2010PropOp46
 70
     1
102
RTVSPost2010Prop47
 90
       50
102
RTVSPost2010PropOp47
 70
     1
102
RTVSPost2010Prop48
 90
       50
102
RTVSPost2010PropOp48
 70
     1
102
RTVSPost2010Prop49
280
     0
102
RTVSPost2010PropOp49
 70
     1
102
RTVSPost2010Prop50
 90
       50
102
RTVSPost2010PropOp50
 70
     1
102
RTVSPost2010Prop51ColorIndex
 90
      256
102
RTVSPost2010Prop51ColorRGB
 90
-16777216
102
RTVSPost2010PropOp51
 70
     0
102
RTVSPost2010Prop52
140
1.0
102
RTVSPost2010PropOp52
 70
     0
102
RTVSPost2010Prop53
 90
        2
102
RTVSPost2010PropOp53
 70
     1
102
RTVSPost2010Prop54
  1
strokes_ogs.tif
102
RTVSPost2010PropOp54
 70
     1
102
RTVSPost2010Prop55
280
     0
102
RTVSPost2010PropOp55
 70
     1
102
RTVSPost2010Prop56
140
1.0
102
RTVSPost2010PropOp56
 70
     1
102
RTVSPost2010Prop57
140
1.0
102
RTVSPost2010PropOp57
 70
     1
  0
XRECORD
  5
427
102
{ACAD_REACTORS
330
426
102
}
330
426
100
AcDbXrecord
280
     1
102
RTVSPost2010Prop28
280
     0
102
RTVSPost2010PropOp28
 70
     1
102
RTVSPost2010Prop29
280
     1
102
RTVSPost2010PropOp29
 70
     1
102
RTVSPost2010Prop30
280
     1
102
RTVSPost2010PropOp30
 70
     1
102
RTVSPost2010Prop31
280
     0
102
RTVSPost2010PropOp31
 70
     1
102
RTVSPost2010Prop32
280
     0
102
RTVSPost2010PropOp32
 70
     1
102
RTVSPost2010Prop33
280
     0
102
RTVSPost2010PropOp33
 70
     1
102
RTVSPost2010Prop34
280
     0
102
RTVSPost2010PropOp34
 70
     1
102
RTVSPost2010Prop35
280
     0
102
RTVSPost2010PropOp35
 70
     1
102
RTVSPost2010Prop36
280
     0
102
RTVSPost2010PropOp36
 70
     1
102
RTVSPost2010Prop37
 90
       50
102
RTVSPost2010PropOp37
 70
     1
102
RTVSPost2010Prop38
140
0.0
102
RTVSPost2010PropOp38
 70
     1
102
RTVSPost2010Prop39
140
1.0
102
RTVSPost2010PropOp39
 70
     1
102
RTVSPost2010Prop40
 90
        0
102
RTVSPost2010PropOp40
 70
     1
102
RTVSPost2010Prop41ColorIndex
 90
       18
102
RTVSPost2010Prop41ColorRGB
 90
        0
102
RTVSPost2010PropOp41
 70
     1
102
RTVSPost2010Prop42
 90
       50
102
RTVSPost2010PropOp42
 70
     1
102
RTVSPost2010Prop43
 90
        3
102
RTVSPost2010PropOp43
 70
     1
102
RTVSPost2010Prop44ColorIndex
 90
        5
102
RTVSPost2010Prop44ColorRGB
 90
      255
102
RTVSPost2010PropOp44
 70
     1
102
RTVSPost2010Prop45
280
     0
102
RTVSPost2010PropOp45
 70
     1
102
RTVSPost2010Prop46
 90
       50
102
RTVSPost2010PropOp46
 70
     1
102
RTVSPost2010Prop47
 90
       50
102
RTVSPost2010PropOp47
 70
     1
102
RTVSPost2010Prop48
 90
       50
102
RTVSPost2010PropOp48
 70
     1
102
RTVSPost2010Prop49
280
     0
102
RTVSPost2010PropOp49
 70
     1
102
RTVSPost2010Prop50
 90
       50
102
RTVSPost2010PropOp50
 70
     1
102
RTVSPost2010Prop51ColorIndex
 90
      256
102
RTVSPost2010Prop51ColorRGB
 90
-16777216
102
RTVSPost2010PropOp51
 70
     0
102
RTVSPost2010Prop52
140
1.0
102
RTVSPost2010PropOp52
 70
     0
102
RTVSPost2010Prop53
 90
        2
102
RTVSPost2010PropOp53
 70
     1
102
RTVSPost2010Prop54
  1
strokes_ogs.tif
102
RTVSPost2010PropOp54
 70
     1
102
RTVSPost2010Prop55
280
     0
102
RTVSPost2010PropOp55
 70
     1
102
RTVSPost2010Prop56
140
1.0
102
RTVSPost2010PropOp56
 70
     1
102
RTVSPost2010Prop57
140
1.0
102
RTVSPost2010PropOp57
 70
     1
  0
XRECORD
  5
43B
102
{ACAD_REACTORS
330
43A
102
}
330
43A
100
AcDbXrecord
280
     1
102
RTVSPost2010Prop28
280
     0
102
RTVSPost2010PropOp28
 70
     0
102
RTVSPost2010Prop29
280
     1
102
RTVSPost2010PropOp29
 70
     0
102
RTVSPost2010Prop30
280
     1
102
RTVSPost2010PropOp30
 70
     0
102
RTVSPost2010Prop31
280
     0
102
RTVSPost2010PropOp31
 70
     0
102
RTVSPost2010Prop32
280
     0
102
RTVSPost2010PropOp32
 70
     0
102
RTVSPost2010Prop33
280
     0
102
RTVSPost2010PropOp33
 70
     0
102
RTVSPost2010Prop34
280
     0
102
RTVSPost2010PropOp34
 70
     0
102
RTVSPost2010Prop35
280
     0
102
RTVSPost2010PropOp35
 70
     0
102
RTVSPost2010Prop36
280
     0
102
RTVSPost2010PropOp36
 70
     0
102
RTVSPost2010Prop37
 90
       50
102
RTVSPost2010PropOp37
 70
     0
102
RTVSPost2010Prop38
140
0.0
102
RTVSPost2010PropOp38
 70
     0
102
RTVSPost2010Prop39
140
1.0
102
RTVSPost2010PropOp39
 70
     0
102
RTVSPost2010Prop40
 90
        0
102
RTVSPost2010PropOp40
 70
     0
102
RTVSPost2010Prop41ColorIndex
 90
       18
102
RTVSPost2010Prop41ColorRGB
 90
        0
102
RTVSPost2010PropOp41
 70
     0
102
RTVSPost2010Prop42
 90
       50
102
RTVSPost2010PropOp42
 70
     0
102
RTVSPost2010Prop43
 90
        3
102
RTVSPost2010PropOp43
 70
     0
102
RTVSPost2010Prop44ColorIndex
 90
        5
102
RTVSPost2010Prop44ColorRGB
 90
      255
102
RTVSPost2010PropOp44
 70
     0
102
RTVSPost2010Prop45
280
     0
102
RTVSPost2010PropOp45
 70
     0
102
RTVSPost2010Prop46
 90
       50
102
RTVSPost2010PropOp46
 70
     0
102
RTVSPost2010Prop47
 90
       50
102
RTVSPost2010PropOp47
 70
     0
102
RTVSPost2010Prop48
 90
       50
102
RTVSPost2010PropOp48
 70
     0
102
RTVSPost2010Prop49
280
     0
102
RTVSPost2010PropOp49
 70
     0
102
RTVSPost2010Prop50
 90
       50
102
RTVSPost2010PropOp50
 70
     0
102
RTVSPost2010Prop51ColorIndex
 90
      256
102
RTVSPost2010Prop51ColorRGB
 90
-16777216
102
RTVSPost2010PropOp51
 70
     0
102
RTVSPost2010Prop52
140
1.0
102
RTVSPost2010PropOp52
 70
     0
102
RTVSPost2010Prop53
 90
        2
102
RTVSPost2010PropOp53
 70
     0
102
RTVSPost2010Prop54
  1
strokes_ogs.tif
102
RTVSPost2010PropOp54
 70
     0
102
RTVSPost2010Prop55
280
     0
102
RTVSPost2010PropOp55
 70
     0
102
RTVSPost2010Prop56
140
1.0
102
RTVSPost2010PropOp56
 70
     0
102
RTVSPost2010Prop57
140
1.0
102
RTVSPost2010PropOp57
 70
     0
  0
XRECORD
  5
435
102
{ACAD_REACTORS
330
434
102
}
330
434
100
AcDbXrecord
280
     1
102
RTVSPost2010Prop28
280
     0
102
RTVSPost2010PropOp28
 70
     1
102
RTVSPost2010Prop29
280
     1
102
RTVSPost2010PropOp29
 70
     1
102
RTVSPost2010Prop30
280
     1
102
RTVSPost2010PropOp30
 70
     1
102
RTVSPost2010Prop31
280
     0
102
RTVSPost2010PropOp31
 70
     1
102
RTVSPost2010Prop32
280
     0
102
RTVSPost2010PropOp32
 70
     1
102
RTVSPost2010Prop33
280
     0
102
RTVSPost2010PropOp33
 70
     1
102
RTVSPost2010Prop34
280
     0
102
RTVSPost2010PropOp34
 70
     1
102
RTVSPost2010Prop35
280
     0
102
RTVSPost2010PropOp35
 70
     1
102
RTVSPost2010Prop36
280
     0
102
RTVSPost2010PropOp36
 70
     1
102
RTVSPost2010Prop37
 90
       50
102
RTVSPost2010PropOp37
 70
     1
102
RTVSPost2010Prop38
140
0.0
102
RTVSPost2010PropOp38
 70
     1
102
RTVSPost2010Prop39
140
1.0
102
RTVSPost2010PropOp39
 70
     1
102
RTVSPost2010Prop40
 90
        0
102
RTVSPost2010PropOp40
 70
     1
102
RTVSPost2010Prop41ColorIndex
 90
       18
102
RTVSPost2010Prop41ColorRGB
 90
        0
102
RTVSPost2010PropOp41
 70
     1
102
RTVSPost2010Prop42
 90
       50
102
RTVSPost2010PropOp42
 70
     1
102
RTVSPost2010Prop43
 90
        3
102
RTVSPost2010PropOp43
 70
     1
102
RTVSPost2010Prop44ColorIndex
 90
        5
102
RTVSPost2010Prop44ColorRGB
 90
      255
102
RTVSPost2010PropOp44
 70
     1
102
RTVSPost2010Prop45
280
     0
102
RTVSPost2010PropOp45
 70
     1
102
RTVSPost2010Prop46
 90
       50
102
RTVSPost2010PropOp46
 70
     1
102
RTVSPost2010Prop47
 90
       50
102
RTVSPost2010PropOp47
 70
     1
102
RTVSPost2010Prop48
 90
       50
102
RTVSPost2010PropOp48
 70
     1
102
RTVSPost2010Prop49
280
     0
102
RTVSPost2010PropOp49
 70
     1
102
RTVSPost2010Prop50
 90
       50
102
RTVSPost2010PropOp50
 70
     1
102
RTVSPost2010Prop51ColorIndex
 90
      256
102
RTVSPost2010Prop51ColorRGB
 90
-16777216
102
RTVSPost2010PropOp51
 70
     0
102
RTVSPost2010Prop52
140
1.0
102
RTVSPost2010PropOp52
 70
     0
102
RTVSPost2010Prop53
 90
        2
102
RTVSPost2010PropOp53
 70
     1
102
RTVSPost2010Prop54
  1
strokes_ogs.tif
102
RTVSPost2010PropOp54
 70
     1
102
RTVSPost2010Prop55
280
     0
102
RTVSPost2010PropOp55
 70
     1
102
RTVSPost2010Prop56
140
1.0
102
RTVSPost2010PropOp56
 70
     1
102
RTVSPost2010Prop57
140
1.0
102
RTVSPost2010PropOp57
 70
     1
  0
XRECORD
  5
43D
102
{ACAD_REACTORS
330
43C
102
}
330
43C
100
AcDbXrecord
280
     1
102
RTVSPost2010Prop28
280
     0
102
RTVSPost2010PropOp28
 70
     0
102
RTVSPost2010Prop29
280
     1
102
RTVSPost2010PropOp29
 70
     0
102
RTVSPost2010Prop30
280
     1
102
RTVSPost2010PropOp30
 70
     0
102
RTVSPost2010Prop31
280
     0
102
RTVSPost2010PropOp31
 70
     0
102
RTVSPost2010Prop32
280
     0
102
RTVSPost2010PropOp32
 70
     0
102
RTVSPost2010Prop33
280
     0
102
RTVSPost2010PropOp33
 70
     0
102
RTVSPost2010Prop34
280
     0
102
RTVSPost2010PropOp34
 70
     0
102
RTVSPost2010Prop35
280
     0
102
RTVSPost2010PropOp35
 70
     0
102
RTVSPost2010Prop36
280
     0
102
RTVSPost2010PropOp36
 70
     0
102
RTVSPost2010Prop37
 90
       50
102
RTVSPost2010PropOp37
 70
     0
102
RTVSPost2010Prop38
140
0.0
102
RTVSPost2010PropOp38
 70
     0
102
RTVSPost2010Prop39
140
1.0
102
RTVSPost2010PropOp39
 70
     0
102
RTVSPost2010Prop40
 90
        0
102
RTVSPost2010PropOp40
 70
     0
102
RTVSPost2010Prop41ColorIndex
 90
       18
102
RTVSPost2010Prop41ColorRGB
 90
        0
102
RTVSPost2010PropOp41
 70
     0
102
RTVSPost2010Prop42
 90
       50
102
RTVSPost2010PropOp42
 70
     0
102
RTVSPost2010Prop43
 90
        3
102
RTVSPost2010PropOp43
 70
     0
102
RTVSPost2010Prop44ColorIndex
 90
        5
102
RTVSPost2010Prop44ColorRGB
 90
      255
102
RTVSPost2010PropOp44
 70
     0
102
RTVSPost2010Prop45
280
     0
102
RTVSPost2010PropOp45
 70
     0
102
RTVSPost2010Prop46
 90
       50
102
RTVSPost2010PropOp46
 70
     0
102
RTVSPost2010Prop47
 90
       50
102
RTVSPost2010PropOp47
 70
     0
102
RTVSPost2010Prop48
 90
       50
102
RTVSPost2010PropOp48
 70
     0
102
RTVSPost2010Prop49
280
     0
102
RTVSPost2010PropOp49
 70
     0
102
RTVSPost2010Prop50
 90
       50
102
RTVSPost2010PropOp50
 70
     0
102
RTVSPost2010Prop51ColorIndex
 90
      256
102
RTVSPost2010Prop51ColorRGB
 90
-16777216
102
RTVSPost2010PropOp51
 70
     0
102
RTVSPost2010Prop52
140
1.0
102
RTVSPost2010PropOp52
 70
     0
102
RTVSPost2010Prop53
 90
        2
102
RTVSPost2010PropOp53
 70
     0
102
RTVSPost2010Prop54
  1
strokes_ogs.tif
102
RTVSPost2010PropOp54
 70
     0
102
RTVSPost2010Prop55
280
     0
102
RTVSPost2010PropOp55
 70
     0
102
RTVSPost2010Prop56
140
1.0
102
RTVSPost2010PropOp56
 70
     0
102
RTVSPost2010Prop57
140
1.0
102
RTVSPost2010PropOp57
 70
     0
  0
XRECORD
  5
42B
102
{ACAD_REACTORS
330
42A
102
}
330
42A
100
AcDbXrecord
280
     1
102
RTVSPost2010Prop28
280
     0
102
RTVSPost2010PropOp28
 70
     1
102
RTVSPost2010Prop29
280
     1
102
RTVSPost2010PropOp29
 70
     1
102
RTVSPost2010Prop30
280
     1
102
RTVSPost2010PropOp30
 70
     1
102
RTVSPost2010Prop31
280
     0
102
RTVSPost2010PropOp31
 70
     1
102
RTVSPost2010Prop32
280
     0
102
RTVSPost2010PropOp32
 70
     1
102
RTVSPost2010Prop33
280
     0
102
RTVSPost2010PropOp33
 70
     1
102
RTVSPost2010Prop34
280
     0
102
RTVSPost2010PropOp34
 70
     1
102
RTVSPost2010Prop35
280
     0
102
RTVSPost2010PropOp35
 70
     1
102
RTVSPost2010Prop36
280
     0
102
RTVSPost2010PropOp36
 70
     1
102
RTVSPost2010Prop37
 90
       50
102
RTVSPost2010PropOp37
 70
     1
102
RTVSPost2010Prop38
140
0.0
102
RTVSPost2010PropOp38
 70
     1
102
RTVSPost2010Prop39
140
1.0
102
RTVSPost2010PropOp39
 70
     1
102
RTVSPost2010Prop40
 90
        0
102
RTVSPost2010PropOp40
 70
     1
102
RTVSPost2010Prop41ColorIndex
 90
       18
102
RTVSPost2010Prop41ColorRGB
 90
        0
102
RTVSPost2010PropOp41
 70
     1
102
RTVSPost2010Prop42
 90
       50
102
RTVSPost2010PropOp42
 70
     1
102
RTVSPost2010Prop43
 90
        3
102
RTVSPost2010PropOp43
 70
     1
102
RTVSPost2010Prop44ColorIndex
 90
        5
102
RTVSPost2010Prop44ColorRGB
 90
      255
102
RTVSPost2010PropOp44
 70
     1
102
RTVSPost2010Prop45
280
     0
102
RTVSPost2010PropOp45
 70
     1
102
RTVSPost2010Prop46
 90
       50
102
RTVSPost2010PropOp46
 70
     1
102
RTVSPost2010Prop47
 90
       50
102
RTVSPost2010PropOp47
 70
     1
102
RTVSPost2010Prop48
 90
       50
102
RTVSPost2010PropOp48
 70
     1
102
RTVSPost2010Prop49
280
     0
102
RTVSPost2010PropOp49
 70
     1
102
RTVSPost2010Prop50
 90
       50
102
RTVSPost2010PropOp50
 70
     1
102
RTVSPost2010Prop51ColorIndex
 90
      256
102
RTVSPost2010Prop51ColorRGB
 90
-16777216
102
RTVSPost2010PropOp51
 70
     0
102
RTVSPost2010Prop52
140
1.0
102
RTVSPost2010PropOp52
 70
     0
102
RTVSPost2010Prop53
 90
        2
102
RTVSPost2010PropOp53
 70
     1
102
RTVSPost2010Prop54
  1
strokes_ogs.tif
102
RTVSPost2010PropOp54
 70
     1
102
RTVSPost2010Prop55
280
     0
102
RTVSPost2010PropOp55
 70
     1
102
RTVSPost2010Prop56
140
1.0
102
RTVSPost2010PropOp56
 70
     1
102
RTVSPost2010Prop57
140
1.0
102
RTVSPost2010PropOp57
 70
     1
  0
XRECORD
  5
449
102
{ACAD_REACTORS
330
448
102
}
330
448
100
AcDbXrecord
280
     1
102
RTVSPost2010Prop28
280
     0
102
RTVSPost2010PropOp28
 70
     1
102
RTVSPost2010Prop29
280
     1
102
RTVSPost2010PropOp29
 70
     1
102
RTVSPost2010Prop30
280
     1
102
RTVSPost2010PropOp30
 70
     1
102
RTVSPost2010Prop31
280
     0
102
RTVSPost2010PropOp31
 70
     1
102
RTVSPost2010Prop32
280
     0
102
RTVSPost2010PropOp32
 70
     1
102
RTVSPost2010Prop33
280
     0
102
RTVSPost2010PropOp33
 70
     1
102
RTVSPost2010Prop34
280
     0
102
RTVSPost2010PropOp34
 70
     1
102
RTVSPost2010Prop35
280
     0
102
RTVSPost2010PropOp35
 70
     1
102
RTVSPost2010Prop36
280
     0
102
RTVSPost2010PropOp36
 70
     1
102
RTVSPost2010Prop37
 90
       50
102
RTVSPost2010PropOp37
 70
     1
102
RTVSPost2010Prop38
140
0.0
102
RTVSPost2010PropOp38
 70
     1
102
RTVSPost2010Prop39
140
1.0
102
RTVSPost2010PropOp39
 70
     1
102
RTVSPost2010Prop40
 90
        0
102
RTVSPost2010PropOp40
 70
     1
102
RTVSPost2010Prop41ColorIndex
 90
       18
102
RTVSPost2010Prop41ColorRGB
 90
        0
102
RTVSPost2010PropOp41
 70
     1
102
RTVSPost2010Prop42
 90
       50
102
RTVSPost2010PropOp42
 70
     1
102
RTVSPost2010Prop43
 90
        3
102
RTVSPost2010PropOp43
 70
     1
102
RTVSPost2010Prop44ColorIndex
 90
        5
102
RTVSPost2010Prop44ColorRGB
 90
      255
102
RTVSPost2010PropOp44
 70
     1
102
RTVSPost2010Prop45
280
     0
102
RTVSPost2010PropOp45
 70
     1
102
RTVSPost2010Prop46
 90
       50
102
RTVSPost2010PropOp46
 70
     1
102
RTVSPost2010Prop47
 90
       50
102
RTVSPost2010PropOp47
 70
     1
102
RTVSPost2010Prop48
 90
       50
102
RTVSPost2010PropOp48
 70
     1
102
RTVSPost2010Prop49
280
     0
102
RTVSPost2010PropOp49
 70
     1
102
RTVSPost2010Prop50
 90
       50
102
RTVSPost2010PropOp50
 70
     1
102
RTVSPost2010Prop51ColorIndex
 90
      256
102
RTVSPost2010Prop51ColorRGB
 90
-16777216
102
RTVSPost2010PropOp51
 70
     0
102
RTVSPost2010Prop52
140
1.0
102
RTVSPost2010PropOp52
 70
     0
102
RTVSPost2010Prop53
 90
        2
102
RTVSPost2010PropOp53
 70
     1
102
RTVSPost2010Prop54
  1
strokes_ogs.tif
102
RTVSPost2010PropOp54
 70
     1
102
RTVSPost2010Prop55
280
     0
102
RTVSPost2010PropOp55
 70
     1
102
RTVSPost2010Prop56
140
1.0
102
RTVSPost2010PropOp56
 70
     1
102
RTVSPost2010Prop57
140
1.0
102
RTVSPost2010PropOp57
 70
     1
  0
XRECORD
  5
447
102
{ACAD_REACTORS
330
446
102
}
330
446
100
AcDbXrecord
280
     1
102
RTVSPost2010Prop28
280
     0
102
RTVSPost2010PropOp28
 70
     1
102
RTVSPost2010Prop29
280
     1
102
RTVSPost2010PropOp29
 70
     1
102
RTVSPost2010Prop30
280
     1
102
RTVSPost2010PropOp30
 70
     1
102
RTVSPost2010Prop31
280
     0
102
RTVSPost2010PropOp31
 70
     1
102
RTVSPost2010Prop32
280
     0
102
RTVSPost2010PropOp32
 70
     1
102
RTVSPost2010Prop33
280
     0
102
RTVSPost2010PropOp33
 70
     1
102
RTVSPost2010Prop34
280
     0
102
RTVSPost2010PropOp34
 70
     1
102
RTVSPost2010Prop35
280
     0
102
RTVSPost2010PropOp35
 70
     1
102
RTVSPost2010Prop36
280
     0
102
RTVSPost2010PropOp36
 70
     1
102
RTVSPost2010Prop37
 90
       50
102
RTVSPost2010PropOp37
 70
     1
102
RTVSPost2010Prop38
140
0.0
102
RTVSPost2010PropOp38
 70
     1
102
RTVSPost2010Prop39
140
1.0
102
RTVSPost2010PropOp39
 70
     1
102
RTVSPost2010Prop40
 90
        0
102
RTVSPost2010PropOp40
 70
     1
102
RTVSPost2010Prop41ColorIndex
 90
       18
102
RTVSPost2010Prop41ColorRGB
 90
        0
102
RTVSPost2010PropOp41
 70
     1
102
RTVSPost2010Prop42
 90
       50
102
RTVSPost2010PropOp42
 70
     1
102
RTVSPost2010Prop43
 90
        3
102
RTVSPost2010PropOp43
 70
     1
102
RTVSPost2010Prop44ColorIndex
 90
        5
102
RTVSPost2010Prop44ColorRGB
 90
      255
102
RTVSPost2010PropOp44
 70
     1
102
RTVSPost2010Prop45
280
     0
102
RTVSPost2010PropOp45
 70
     1
102
RTVSPost2010Prop46
 90
       50
102
RTVSPost2010PropOp46
 70
     1
102
RTVSPost2010Prop47
 90
       50
102
RTVSPost2010PropOp47
 70
     1
102
RTVSPost2010Prop48
 90
       50
102
RTVSPost2010PropOp48
 70
     1
102
RTVSPost2010Prop49
280
     0
102
RTVSPost2010PropOp49
 70
     1
102
RTVSPost2010Prop50
 90
       50
102
RTVSPost2010PropOp50
 70
     1
102
RTVSPost2010Prop51ColorIndex
 90
      256
102
RTVSPost2010Prop51ColorRGB
 90
-16777216
102
RTVSPost2010PropOp51
 70
     0
102
RTVSPost2010Prop52
140
1.0
102
RTVSPost2010PropOp52
 70
     0
102
RTVSPost2010Prop53
 90
        2
102
RTVSPost2010PropOp53
 70
     1
102
RTVSPost2010Prop54
  1
strokes_ogs.tif
102
RTVSPost2010PropOp54
 70
     1
102
RTVSPost2010Prop55
280
     0
102
RTVSPost2010PropOp55
 70
     1
102
RTVSPost2010Prop56
140
1.0
102
RTVSPost2010PropOp56
 70
     1
102
RTVSPost2010Prop57
140
1.0
102
RTVSPost2010PropOp57
 70
     1
  0
XRECORD
  5
441
102
{ACAD_REACTORS
330
440
102
}
330
440
100
AcDbXrecord
280
     1
102
RTVSPost2010Prop28
280
     0
102
RTVSPost2010PropOp28
 70
     1
102
RTVSPost2010Prop29
280
     1
102
RTVSPost2010PropOp29
 70
     1
102
RTVSPost2010Prop30
280
     1
102
RTVSPost2010PropOp30
 70
     1
102
RTVSPost2010Prop31
280
     0
102
RTVSPost2010PropOp31
 70
     1
102
RTVSPost2010Prop32
280
     0
102
RTVSPost2010PropOp32
 70
     1
102
RTVSPost2010Prop33
280
     0
102
RTVSPost2010PropOp33
 70
     1
102
RTVSPost2010Prop34
280
     0
102
RTVSPost2010PropOp34
 70
     1
102
RTVSPost2010Prop35
280
     0
102
RTVSPost2010PropOp35
 70
     1
102
RTVSPost2010Prop36
280
     0
102
RTVSPost2010PropOp36
 70
     1
102
RTVSPost2010Prop37
 90
       50
102
RTVSPost2010PropOp37
 70
     1
102
RTVSPost2010Prop38
140
0.0
102
RTVSPost2010PropOp38
 70
     1
102
RTVSPost2010Prop39
140
1.0
102
RTVSPost2010PropOp39
 70
     1
102
RTVSPost2010Prop40
 90
        0
102
RTVSPost2010PropOp40
 70
     1
102
RTVSPost2010Prop41ColorIndex
 90
       18
102
RTVSPost2010Prop41ColorRGB
 90
        0
102
RTVSPost2010PropOp41
 70
     1
102
RTVSPost2010Prop42
 90
       50
102
RTVSPost2010PropOp42
 70
     1
102
RTVSPost2010Prop43
 90
        3
102
RTVSPost2010PropOp43
 70
     1
102
RTVSPost2010Prop44ColorIndex
 90
        5
102
RTVSPost2010Prop44ColorRGB
 90
      255
102
RTVSPost2010PropOp44
 70
     1
102
RTVSPost2010Prop45
280
     0
102
RTVSPost2010PropOp45
 70
     1
102
RTVSPost2010Prop46
 90
       50
102
RTVSPost2010PropOp46
 70
     1
102
RTVSPost2010Prop47
 90
       50
102
RTVSPost2010PropOp47
 70
     1
102
RTVSPost2010Prop48
 90
       50
102
RTVSPost2010PropOp48
 70
     1
102
RTVSPost2010Prop49
280
     0
102
RTVSPost2010PropOp49
 70
     1
102
RTVSPost2010Prop50
 90
       50
102
RTVSPost2010PropOp50
 70
     1
102
RTVSPost2010Prop51ColorIndex
 90
      256
102
RTVSPost2010Prop51ColorRGB
 90
-16777216
102
RTVSPost2010PropOp51
 70
     0
102
RTVSPost2010Prop52
140
1.0
102
RTVSPost2010PropOp52
 70
     0
102
RTVSPost2010Prop53
 90
        2
102
RTVSPost2010PropOp53
 70
     1
102
RTVSPost2010Prop54
  1
strokes_ogs.tif
102
RTVSPost2010PropOp54
 70
     1
102
RTVSPost2010Prop55
280
     0
102
RTVSPost2010PropOp55
 70
     1
102
RTVSPost2010Prop56
140
1.0
102
RTVSPost2010PropOp56
 70
     1
102
RTVSPost2010Prop57
140
1.0
102
RTVSPost2010PropOp57
 70
     1
  0
XRECORD
  5
443
102
{ACAD_REACTORS
330
442
102
}
330
442
100
AcDbXrecord
280
     1
102
RTVSPost2010Prop28
280
     0
102
RTVSPost2010PropOp28
 70
     1
102
RTVSPost2010Prop29
280
     1
102
RTVSPost2010PropOp29
 70
     1
102
RTVSPost2010Prop30
280
     1
102
RTVSPost2010PropOp30
 70
     1
102
RTVSPost2010Prop31
280
     0
102
RTVSPost2010PropOp31
 70
     1
102
RTVSPost2010Prop32
280
     0
102
RTVSPost2010PropOp32
 70
     1
102
RTVSPost2010Prop33
280
     0
102
RTVSPost2010PropOp33
 70
     1
102
RTVSPost2010Prop34
280
     0
102
RTVSPost2010PropOp34
 70
     1
102
RTVSPost2010Prop35
280
     0
102
RTVSPost2010PropOp35
 70
     1
102
RTVSPost2010Prop36
280
     0
102
RTVSPost2010PropOp36
 70
     1
102
RTVSPost2010Prop37
 90
       50
102
RTVSPost2010PropOp37
 70
     1
102
RTVSPost2010Prop38
140
0.0
102
RTVSPost2010PropOp38
 70
     1
102
RTVSPost2010Prop39
140
1.0
102
RTVSPost2010PropOp39
 70
     1
102
RTVSPost2010Prop40
 90
        0
102
RTVSPost2010PropOp40
 70
     1
102
RTVSPost2010Prop41ColorIndex
 90
       18
102
RTVSPost2010Prop41ColorRGB
 90
        0
102
RTVSPost2010PropOp41
 70
     1
102
RTVSPost2010Prop42
 90
       50
102
RTVSPost2010PropOp42
 70
     1
102
RTVSPost2010Prop43
 90
        3
102
RTVSPost2010PropOp43
 70
     1
102
RTVSPost2010Prop44ColorIndex
 90
        5
102
RTVSPost2010Prop44ColorRGB
 90
      255
102
RTVSPost2010PropOp44
 70
     1
102
RTVSPost2010Prop45
280
     0
102
RTVSPost2010PropOp45
 70
     1
102
RTVSPost2010Prop46
 90
       50
102
RTVSPost2010PropOp46
 70
     1
102
RTVSPost2010Prop47
 90
       50
102
RTVSPost2010PropOp47
 70
     1
102
RTVSPost2010Prop48
 90
       50
102
RTVSPost2010PropOp48
 70
     1
102
RTVSPost2010Prop49
280
     0
102
RTVSPost2010PropOp49
 70
     1
102
RTVSPost2010Prop50
 90
       50
102
RTVSPost2010PropOp50
 70
     1
102
RTVSPost2010Prop51ColorIndex
 90
      256
102
RTVSPost2010Prop51ColorRGB
 90
-16777216
102
RTVSPost2010PropOp51
 70
     0
102
RTVSPost2010Prop52
140
1.0
102
RTVSPost2010PropOp52
 70
     0
102
RTVSPost2010Prop53
 90
        2
102
RTVSPost2010PropOp53
 70
     1
102
RTVSPost2010Prop54
  1
strokes_ogs.tif
102
RTVSPost2010PropOp54
 70
     1
102
RTVSPost2010Prop55
280
     0
102
RTVSPost2010PropOp55
 70
     1
102
RTVSPost2010Prop56
140
1.0
102
RTVSPost2010PropOp56
 70
     1
102
RTVSPost2010Prop57
140
1.0
102
RTVSPost2010PropOp57
 70
     1
  0
XRECORD
  5
433
102
{ACAD_REACTORS
330
432
102
}
330
432
100
AcDbXrecord
280
     1
102
RTVSPost2010Prop28
280
     0
102
RTVSPost2010PropOp28
 70
     1
102
RTVSPost2010Prop29
280
     1
102
RTVSPost2010PropOp29
 70
     1
102
RTVSPost2010Prop30
280
     1
102
RTVSPost2010PropOp30
 70
     1
102
RTVSPost2010Prop31
280
     0
102
RTVSPost2010PropOp31
 70
     1
102
RTVSPost2010Prop32
280
     0
102
RTVSPost2010PropOp32
 70
     1
102
RTVSPost2010Prop33
280
     0
102
RTVSPost2010PropOp33
 70
     1
102
RTVSPost2010Prop34
280
     0
102
RTVSPost2010PropOp34
 70
     1
102
RTVSPost2010Prop35
280
     0
102
RTVSPost2010PropOp35
 70
     1
102
RTVSPost2010Prop36
280
     0
102
RTVSPost2010PropOp36
 70
     1
102
RTVSPost2010Prop37
 90
       50
102
RTVSPost2010PropOp37
 70
     1
102
RTVSPost2010Prop38
140
0.0
102
RTVSPost2010PropOp38
 70
     1
102
RTVSPost2010Prop39
140
1.0
102
RTVSPost2010PropOp39
 70
     1
102
RTVSPost2010Prop40
 90
        0
102
RTVSPost2010PropOp40
 70
     1
102
RTVSPost2010Prop41ColorIndex
 90
       18
102
RTVSPost2010Prop41ColorRGB
 90
        0
102
RTVSPost2010PropOp41
 70
     1
102
RTVSPost2010Prop42
 90
       50
102
RTVSPost2010PropOp42
 70
     1
102
RTVSPost2010Prop43
 90
        3
102
RTVSPost2010PropOp43
 70
     1
102
RTVSPost2010Prop44ColorIndex
 90
        5
102
RTVSPost2010Prop44ColorRGB
 90
      255
102
RTVSPost2010PropOp44
 70
     1
102
RTVSPost2010Prop45
280
     0
102
RTVSPost2010PropOp45
 70
     1
102
RTVSPost2010Prop46
 90
       50
102
RTVSPost2010PropOp46
 70
     1
102
RTVSPost2010Prop47
 90
       50
102
RTVSPost2010PropOp47
 70
     1
102
RTVSPost2010Prop48
 90
       50
102
RTVSPost2010PropOp48
 70
     1
102
RTVSPost2010Prop49
280
     0
102
RTVSPost2010PropOp49
 70
     1
102
RTVSPost2010Prop50
 90
       50
102
RTVSPost2010PropOp50
 70
     1
102
RTVSPost2010Prop51ColorIndex
 90
      256
102
RTVSPost2010Prop51ColorRGB
 90
-16777216
102
RTVSPost2010PropOp51
 70
     0
102
RTVSPost2010Prop52
140
1.0
102
RTVSPost2010PropOp52
 70
     0
102
RTVSPost2010Prop53
 90
        2
102
RTVSPost2010PropOp53
 70
     1
102
RTVSPost2010Prop54
  1
strokes_ogs.tif
102
RTVSPost2010PropOp54
 70
     1
102
RTVSPost2010Prop55
280
     0
102
RTVSPost2010PropOp55
 70
     1
102
RTVSPost2010Prop56
140
1.0
102
RTVSPost2010PropOp56
 70
     1
102
RTVSPost2010Prop57
140
1.0
102
RTVSPost2010PropOp57
 70
     1
  0
XRECORD
  5
425
102
{ACAD_REACTORS
330
424
102
}
330
424
100
AcDbXrecord
280
     1
102
RTVSPost2010Prop28
280
     0
102
RTVSPost2010PropOp28
 70
     1
102
RTVSPost2010Prop29
280
     1
102
RTVSPost2010PropOp29
 70
     1
102
RTVSPost2010Prop30
280
     1
102
RTVSPost2010PropOp30
 70
     1
102
RTVSPost2010Prop31
280
     0
102
RTVSPost2010PropOp31
 70
     1
102
RTVSPost2010Prop32
280
     0
102
RTVSPost2010PropOp32
 70
     1
102
RTVSPost2010Prop33
280
     0
102
RTVSPost2010PropOp33
 70
     1
102
RTVSPost2010Prop34
280
     0
102
RTVSPost2010PropOp34
 70
     1
102
RTVSPost2010Prop35
280
     0
102
RTVSPost2010PropOp35
 70
     1
102
RTVSPost2010Prop36
280
     0
102
RTVSPost2010PropOp36
 70
     1
102
RTVSPost2010Prop37
 90
       50
102
RTVSPost2010PropOp37
 70
     1
102
RTVSPost2010Prop38
140
0.0
102
RTVSPost2010PropOp38
 70
     1
102
RTVSPost2010Prop39
140
1.0
102
RTVSPost2010PropOp39
 70
     1
102
RTVSPost2010Prop40
 90
        0
102
RTVSPost2010PropOp40
 70
     1
102
RTVSPost2010Prop41ColorIndex
 90
       18
102
RTVSPost2010Prop41ColorRGB
 90
        0
102
RTVSPost2010PropOp41
 70
     1
102
RTVSPost2010Prop42
 90
       50
102
RTVSPost2010PropOp42
 70
     1
102
RTVSPost2010Prop43
 90
        3
102
RTVSPost2010PropOp43
 70
     1
102
RTVSPost2010Prop44ColorIndex
 90
        5
102
RTVSPost2010Prop44ColorRGB
 90
      255
102
RTVSPost2010PropOp44
 70
     1
102
RTVSPost2010Prop45
280
     0
102
RTVSPost2010PropOp45
 70
     1
102
RTVSPost2010Prop46
 90
       50
102
RTVSPost2010PropOp46
 70
     1
102
RTVSPost2010Prop47
 90
       50
102
RTVSPost2010PropOp47
 70
     1
102
RTVSPost2010Prop48
 90
       50
102
RTVSPost2010PropOp48
 70
     1
102
RTVSPost2010Prop49
280
     0
102
RTVSPost2010PropOp49
 70
     1
102
RTVSPost2010Prop50
 90
       50
102
RTVSPost2010PropOp50
 70
     1
102
RTVSPost2010Prop51ColorIndex
 90
      256
102
RTVSPost2010Prop51ColorRGB
 90
-16777216
102
RTVSPost2010PropOp51
 70
     0
102
RTVSPost2010Prop52
140
1.0
102
RTVSPost2010PropOp52
 70
     0
102
RTVSPost2010Prop53
 90
        2
102
RTVSPost2010PropOp53
 70
     1
102
RTVSPost2010Prop54
  1
strokes_ogs.tif
102
RTVSPost2010PropOp54
 70
     1
102
RTVSPost2010Prop55
280
     0
102
RTVSPost2010PropOp55
 70
     1
102
RTVSPost2010Prop56
140
1.0
102
RTVSPost2010PropOp56
 70
     1
102
RTVSPost2010Prop57
140
1.0
102
RTVSPost2010PropOp57
 70
     1
  0
XRECORD
  5
445
102
{ACAD_REACTORS
330
444
102
}
330
444
100
AcDbXrecord
280
     1
102
RTVSPost2010Prop28
280
     0
102
RTVSPost2010PropOp28
 70
     1
102
RTVSPost2010Prop29
280
     1
102
RTVSPost2010PropOp29
 70
     1
102
RTVSPost2010Prop30
280
     1
102
RTVSPost2010PropOp30
 70
     1
102
RTVSPost2010Prop31
280
     0
102
RTVSPost2010PropOp31
 70
     1
102
RTVSPost2010Prop32
280
     0
102
RTVSPost2010PropOp32
 70
     1
102
RTVSPost2010Prop33
280
     0
102
RTVSPost2010PropOp33
 70
     1
102
RTVSPost2010Prop34
280
     0
102
RTVSPost2010PropOp34
 70
     1
102
RTVSPost2010Prop35
280
     0
102
RTVSPost2010PropOp35
 70
     1
102
RTVSPost2010Prop36
280
     0
102
RTVSPost2010PropOp36
 70
     1
102
RTVSPost2010Prop37
 90
       50
102
RTVSPost2010PropOp37
 70
     1
102
RTVSPost2010Prop38
140
0.0
102
RTVSPost2010PropOp38
 70
     1
102
RTVSPost2010Prop39
140
1.0
102
RTVSPost2010PropOp39
 70
     1
102
RTVSPost2010Prop40
 90
        0
102
RTVSPost2010PropOp40
 70
     1
102
RTVSPost2010Prop41ColorIndex
 90
       18
102
RTVSPost2010Prop41ColorRGB
 90
        0
102
RTVSPost2010PropOp41
 70
     1
102
RTVSPost2010Prop42
 90
       50
102
RTVSPost2010PropOp42
 70
     1
102
RTVSPost2010Prop43
 90
        3
102
RTVSPost2010PropOp43
 70
     1
102
RTVSPost2010Prop44ColorIndex
 90
        5
102
RTVSPost2010Prop44ColorRGB
 90
      255
102
RTVSPost2010PropOp44
 70
     1
102
RTVSPost2010Prop45
280
     0
102
RTVSPost2010PropOp45
 70
     1
102
RTVSPost2010Prop46
 90
       50
102
RTVSPost2010PropOp46
 70
     1
102
RTVSPost2010Prop47
 90
       50
102
RTVSPost2010PropOp47
 70
     1
102
RTVSPost2010Prop48
 90
       50
102
RTVSPost2010PropOp48
 70
     1
102
RTVSPost2010Prop49
280
     0
102
RTVSPost2010PropOp49
 70
     1
102
RTVSPost2010Prop50
 90
       50
102
RTVSPost2010PropOp50
 70
     1
102
RTVSPost2010Prop51ColorIndex
 90
      256
102
RTVSPost2010Prop51ColorRGB
 90
-16777216
102
RTVSPost2010PropOp51
 70
     0
102
RTVSPost2010Prop52
140
1.0
102
RTVSPost2010PropOp52
 70
     0
102
RTVSPost2010Prop53
 90
        2
102
RTVSPost2010PropOp53
 70
     1
102
RTVSPost2010Prop54
  1
strokes_ogs.tif
102
RTVSPost2010PropOp54
 70
     1
102
RTVSPost2010Prop55
280
     0
102
RTVSPost2010PropOp55
 70
     1
102
RTVSPost2010Prop56
140
1.0
102
RTVSPost2010PropOp56
 70
     1
102
RTVSPost2010Prop57
140
1.0
102
RTVSPost2010PropOp57
 70
     1
  0
ENDSEC
  0
EOF
